AllChordsTabs.com

Dance Gavin Dance - Burning Down The Nicotine Armoire (Second Version) Chords and Tabs


Artists:
Chords and Tabs » D » Dance Gavin Dance - Burning Down The Nicotine Armoire (Second Version)

Dance Gavin Dance - Burning Down The Nicotine Armoire (Second Version)

Dance Gavin Dance - Burning Down The Nicotine Armoire (Second Version) Chords / Tabs

Dance Gavin Dance - Burning Down The Nicotine Armoire Second Version: chords and tabs for the song. Watch chords and tablatures for all songs of the singer (group) Dance Gavin Dance. Other chords and tabs for the "Burning Down The Nicotine Armoire" can find at the bottom of the page.

"this song is pretty hard but its worth a try =]


intro
e-------------10-------|
b--8------8p7----8p7---|
g----9-11--------------|
d----------------------| play 4 times
a----------------------|
d----------------------|


e----------10---------------------------|
b--7p8-7p8----8p7-8p12-8p12-8p12-8p12---|
g---------------------------------------|
d---------------------------------------| play 8 times
a---------------------------------------|
d---------------------------------------|

then
e-----------------|
b-----------------|
g-----------------|
d--2~-------------|
a--2~-------------|
d--2~-------------|

when Jonny's orgasmic voice comes in
(find out the rhythm)
e---------------------|
b---------------------|
g---------------------|
d--2-2-2---5-5-5------|
a--2-2-2---5-5-5------|
d--2-2-2---5-5-5------|
"SO NOW YOUR DREAM IS DEAAAD"

guitar 2 does something like this
e-----------------------|
b-----------------------|
g-----------------------|
d-----------------------|
a--9p10-9p10-9p10-7-----|
d-----------------------|

and then the gnarly bass!(i tabbed it on guitar so it might sound diff on actual bass)
e-----------------------------|
b-----------------------------|
g-----------------------------|
d-----------------------------|
a-----------------------------|
d--2---7p9--5--4--0p2---------|

guitar
e---------|
b--7------|
g----4----|
d---------|   listen for it
a---------|
d---------|

then bass
e---------------------------------|
b---------------------------------|
g---------------------------------|
d---------------------------------|
a---------------------------------|
d--2--7p9--5--4--2--7p9--5--4--2--|

guitar 1 repeats
e------------|
b--7---------|
g----4-------|
d------5-----|
a------------|
d------------|

guitar 2 does something like
e--10-7------|
b-------8/7--|
g------------|  listen for it
d------------|
a------------|
d------------|


prechorus
e----------------------|
b----------------------|
g--4---11--------------|
d--x---x-(times 16)----|
a--2---9---------------|
d----------------------|
slide from 2/4 to 9/11

second time thru
e------------------------|
b------------------------|
g--4---11------------12--|
d--x---x-(times 15)---x--|
a--2---9-------------10--|
d------------------------|


chorus.
e----------------------------------|
b-----------8--8--8----------------|-(let it ring) and bend it as well
g--5--5-5--11-11-11~---------------|
d--5--5-5--------------------------|
a--3--3-3--------------------------|
d----------------------------------|
* *

e-----------------------------------|
b-----------8--8---8----------------|(let it ring) and bend it as well
g----------11-11--11----------------|
d--2--2-2---------------------------|
a--2--2-2---------------------------|
d--2--2-2---------------------------|
* *

then idk what the guitar does after the chorus

but the next part is
e--------------------|
b--------------------|
g--16-14-16-14-------|
d---x--x--x--x-------| times 2
a--14-12-14-12-------|
d--------------------|
= all played twice
e--------------------|
b--------------------|
g-11-12-11--12-------|
d--x--x--x---x-------| times 2
a--9-10--9--10-------|
d--------------------|


chorus again.

then
e--7~-7-10------|
b----------7-8--|
g---------------|
d---------------|
a---------------|
d---------------|
that plays for a while and then...
e--8-7----------|
b------8--------|
g---------------|
d---------------|
a---------------|
d---------------|
those are played for a while and then...
e----14----17-----|
b-15----15----15--|
g-----------------|
d-----------------|
a-----------------|
d-----------------|
thats played for a while then...
e--10-10-10-8-8-8-7-7-7----|
b-----------------------8--|
g--------------------------|
d--------------------------|
a--------------------------|
d--------------------------|
finally the outro only has the 10/12 to 9/11 chords over and over
(find the rhythm)
e----------------------|
b----------------------|
g--12---11-------------|
d---x----x-------------|
a--10----9-------------|
d----------------------|


mhmm=]
aim - cyanidexlandmine
"

LiveInternet