AllChordsTabs.com

Dance Gavin Dance - Hot Water On Wool (First Version) Chords and Tabs


Artists:
Chords and Tabs » D » Dance Gavin Dance - Hot Water On Wool (First Version)

Dance Gavin Dance - Hot Water On Wool (First Version)

Dance Gavin Dance - Hot Water On Wool (First Version) Chords / Tabs

Dance Gavin Dance - Hot Water On Wool First Version: chords and tabs for the song. Watch chords and tablatures for all songs of the singer (group) Dance Gavin Dance. Other chords and tabs for the "Hot Water On Wool" can find at the bottom of the page.

(Intro)
Intro Chords in order (Thanks To PandaBear!)

e|---------|-------9---|--4----4--4--|--4----4--4--|
B|-12--14--|------10---|--5----5--5--|--5----5--5--|
G|-11--11--|--11--11---|--4----6--4--|--4----6--4--|
D|--0--0---|--12--12---|--7----7--7--|--7----7--7--|
A|---------|--(9)-(9)--|--4----4--4--|--4----4--4--|
D|-12--12--|--9---(9)--|--4----4--4--|--4----4--4--|


Zacs Groove :P (right earphone)

e--------------------------------------------------------------------------|
B--------------------------------------------------------------------------|
G-----2-1-------------2-1~------------------2-1--2/4--4/6-------2-1~-------|
D-2h4------2/4---2h4------------2-4----2h4-----------------2h4----------2-4|
A----------------------------2h4-------------------------------------2h4---|
D--------------------------------------------------------------------------|


e----------------------------------------------------------------5-7--9p7--5h7p5-------7-10/14-|
B--------------------------------------------------------5---5-7------------------7/10---------|
G-----2-1------------2-1~------------------2-1--2/4--4/6---6-----------------------------------|
D-2h4------2/4---2h4------------2-4----2h4-----------------------------------------------------|
A----------------------------2h4---------------------------------------------------------------|
D----------------------------------------------------------------------------------------------|


e--------------------------------------------------------------------------|
B--------------------------------------------------------------------------|
G-----2-1-------------2-1~------------------2-1--2/4--4/6-------2-1~-------|
D-2h4------2/4---2h4------------2-4----2h4-----------------2h4----------2-4|
A----------------------------2h4-------------------------------------2h4---|
D--------------------------------------------------------------------------|

LiveInternet