AllChordsTabs.com

Sara Bareilles - Bluebird (First Version) Chords and Tabs


Artists:
Chords and Tabs » S » Sara Bareilles - Bluebird (First Version)

Sara Bareilles - Bluebird (First Version)

Sara Bareilles - Bluebird (First Version) Chords / Tabs

Sara Bareilles - Bluebird First Version: chords and tabs for the song. Watch chords and tablatures for all songs of the singer (group) Sara Bareilles. Other chords and tabs for the "Bluebird" can find at the bottom of the page.

[Intro - play this tab twice]

e|-------------0--------0-----------------------0--------0---------------------------|
B|-----------------------------------------------------------------------------------|
G|--------0--------0---------0------------0---------0---------0----------------------|
D|-----------------------------------------------------------------------------------|
A|---3------------------------------1------------------------------------------------|
E|-----------------------------------------------------------------------------------|

e|-----------1--------1------1-----------------------------------------------------|
B|---------------------------------------------------------------------------------|
G|------2--------2-------2--------------2------------------------------------------| .
D|---0-----------------------------------------------------------------------------|
A|---------------------------------------------------------------------------------|
E|---------------------------------------------------------------------------------|

[Verse]
(play the intro tab)

word came through in a
letter
One of us changing our
mind

e|----------0--------0-------------------0--------0----------------------------------|
B|-----------------------------------------------------------------------------------|
G|------0-------0-------0-----------0--------0--------0------------------------------|
D|-----------------------------------------------------------------------------------|
A|--3-------------------------1------------------------------------------------------|
E|-----------------------------------------------------------------------------------|

e|-----------1--------1--------1----------------1--------1-------1-------------------|
B|-----------------------------------------------------------------------------------|
G|-------2-------2-------2-----------------2--------2-------2------------------------|
D|---0------------------------------3------------------------------------------------|
A|-----------------------------------------------------------------------------------|
E|-----------------------------------------------------------------------------------|


e|-----------1--------1--------1--------------------------------------------------|
B|------1--------1---------1------------------------------------------------------|
G|--1-----------------------------------------------------------------------------|
D|--------------------------------------------------------------------------------|
A|--------------------------------------------------------------------------------|
E|--------------------------------------------------------------------------------|

You won't need to guess who, Since I
usually do not send letters to me
that are mine

(repeat entire verse structure for other verses)

Told him I saw this               | This pair of wings, worn and
coming, that I'd                  | rusted from
practically packed up my          | too many years by my
things                            | side
I was glad at the time            | They would carry me, swear to be
that I said I was fine, but all   | sturdy and strong, but see
honesty knows, I wasn't           | turning them on still means
ready, no                         | goodbye

[Chorus]
picked chords:

e|----1----1----------1-----------0------------0------------------------------------|
B|----1----1----------1-----------1--------------------------0----------------------|
G|---------------------------------------------0-------------0----------------------|
D|----3----2----------0-------------------------------------------------------------|
A|--------------------------------3------------0------------------------------------|
E|-----------------------------------------------------------0----------------------|

and   so  here we go  bluebird   back to the   sky on your  own

e|---1----1----------1---------1--------------1-------------------------------------|
B|---1----1----------1---------1--------------1-------------------------------------|
G|--------------------------------------------0-------------------------------------|
D|---3----2----------0---------3----------------------------------------------------|
A|----------------------------------------------------------------------------------|
E|----------------------------------------------------------------------------------|

oh   let him go bluebird   ready to fly,  you and I, here we go
(on "go", begin the intro tab again for 1 time around)

For outro, play the intro tab twice with the words "here we go" at the end of the chorus,
and on the third and last "here we go" play:

e|------0----0---|-------0----0---|------1----1----|-----1---1---1--|
B|---------------|----------------|----------------|---1---1---1----|
G|----0---0----0-|----0----0----0-|----2---2----2--|-1--------------|
D|---------------|----------------|--3-------------|----------------|
A|--3------------|-1--------------|----------------|----------------|
E|---------------|----------------|----------------|----------------|

finish by strumming a C chord

LiveInternet