AllChordsTabs.com

Dance Gavin Dance - The Jiggler (First Version) Chords and Tabs


Artists:
Chords and Tabs » D » Dance Gavin Dance - The Jiggler (First Version)

Dance Gavin Dance - The Jiggler (First Version)

Dance Gavin Dance - The Jiggler (First Version) Chords / Tabs

Dance Gavin Dance - The Jiggler First Version: chords and tabs for the song. Watch chords and tablatures for all songs of the singer (group) Dance Gavin Dance. Other chords and tabs for the "The Jiggler " can find at the bottom of the page.

[Intro]

e|---------------------------------------------------------------------------|
B|----8------8------8------8----------5------5-----5-----5-------------------|
G|------9------9------9------9----------7------7-----7-----7-----------------|
D|---------------------------------------------------------------------------|
A|--7------7------7------7----------5------5------5-----5--------------------|
E|---------------------------------------------------------------------------|


e|---------------------------------------------------------------------------|
B|----8------8------8----8--11b--8--------5------5-----5-----5---------------|
G|------9------9------9---------------------7------7-----7-----7-------------|
D|---------------------------------------------------------------------------|
A|--7------7------7---------------------5------5------5-----5----------------|
E|---------------------------------------------------------------------------|

LiveInternet