AllChordsTabs.com

Dance Gavin Dance - Open Your Eyes And Look North (Second Version) Chords and Tabs


Artists:
Chords and Tabs » D » Dance Gavin Dance - Open Your Eyes And Look North (Second Version)

Dance Gavin Dance - Open Your Eyes And Look North (Second Version)

Dance Gavin Dance - Open Your Eyes And Look North (Second Version) Chords / Tabs

Dance Gavin Dance - Open Your Eyes And Look North Second Version: chords and tabs for the song. Watch chords and tablatures for all songs of the singer (group) Dance Gavin Dance. Other chords and tabs for the "Open Your Eyes And Look North" can find at the bottom of the page.

ok im gonna try my best to fully tab out both guitar parts. ill tab guitar one first and
guitar two like at the bottom or somethin. this is a pretty easy song to play and
hella kool so enjoy. ps..in the intro for guitar one i put the little times 3 next to
eleven cuz it looks weird wen i bunch the 11's up into 3..so basically just play 11 on the g
times wen u see the x3. :)

(guitar 1)
intro
e|----------------------9h11-11---------------------------------------------|
B|---------11---------------------------------------------------------------|
G|-8h11p8------11-9-11-----------888-------11(x3)--666-6h8-8----------------|
D|------------------------------------999-----------------------------------|
A|--------------------------------------------------------------------------|
D|--------------------------------------------------------------------------|

e|----------------------9h11-11---------------------------------------------|
B|---------11---------------------------------------------------------------|
G|-8h11p8------11-9-11-----------888-------11(x3)--6666~--------------------|
D|------------------------------------999-----------------------------------|
A|--------------------------------------------------------------------------|
D|--------------------------------------------------------------------------|

e|----------------------9h11-11---------------------------------------------|
B|---------11---------------------------------------------------------------|
G|-8h11p8------11-9-11-----------888-------11(x3)--666-6h8-8----------------|
D|------------------------------------999-----------------------------------|
A|--------------------------------------------------------------------------|
D|--------------------------------------------------------------------------|

e|----------------------9h11-11---------------------------------------------|
B|---------11---------------------------------------------------------------|
G|-8h11p8------11-9-11-----------888-------11(x3)--6666~--------------------|
D|------------------------------------999-----------------------------------|
A|--------------------------------------------------------------------------|
D|--------------------------------------------------------------------------|

then both guitars play this part..its tremelo picking so just listen to the song to no
to switch.
e|---------11t--9t--11t--9t-----------11t--9t--14t--------------------------|
B|-11t--12t------------------11t--12t---------------------------------------|
G|--------------------------------------------------------------------------|
D|--------------------------------------------------------------------------|
A|--------------------------------------------------------------------------|
D|--------------------------------------------------------------------------|

then back to guitar 1..mite b the chorus..idk but it starts at 0:38 and its basically
this chord..strummin isnt hard to figure out
e|--------------------------------------------------------------------------|
B|--------------------------------------------------------------------------|
G|--------------------------------------------------------------------------|
D|-6------------------------------------------------------------------------|
A|-6------------------------------------------------------------------------|
D|-6------------------------------------------------------------------------|

then at 1:02 play this and just repeat it untill 1:26
e|----------------------9-11-9-11-9-11-9------------------------------------|
B|-777--11(x3)--12(x3)------------------------------------------------------|
G|--------------------------------------------------------------------------|
D|--------------------------------------------------------------------------|
A|--------------------------------------------------------------------------|
D|--------------------------------------------------------------------------|

then play this twice
e|-18p16-14-----------------------------------------------------------------|
B|----------16-16--14-14-14-14h16-------------------------------------------|
G|--------------------------------------------------------------------------|
D|--------------------------------------------------------------------------|
A|--------------------------------------------------------------------------|
D|--------------------------------------------------------------------------|

tremelo picking again just listen to the song for transition..this part starts at 1:32
e|-11t-6t--7t--11t----------11t-6t--7t--16t-14t-16t--14t-19t--21t-14t-19t----|
B|------------------9t--7t---------------------------------------------------|
G|---------------------------------------------------------------------------|
D|---------------------------------------------------------------------------|
A|---------------------------------------------------------------------------|
D|---------------------------------------------------------------------------|

e|-16t-14t-19t-21t-14t-19t-16t-14t-19t-21t-14t-19t-16t-14t-19t-21t-14t-19t--|
B|--------------------------------------------------------------------------|
G|--------------------------------------------------------------------------|
D|--------------------------------------------------------------------------|
A|--------------------------------------------------------------------------|
D|--------------------------------------------------------------------------|

then at 1:55 play this
e|-19(x3)-18(x9)-14(x2)-------14(x3)-16(x3)-14h16-14h16--14------------------|
B|---------------------16(x2)-------------------------------16-17-16-14------|
G|----------------------------------------------------------------------16---|
D|---------------------------------------------------------------------------|
A|---------------------------------------------------------------------------|
D|---------------------------------------------------------------------------|

e|-19(x3)-18(x3)-14(x9)----19(x3)-18(x3)-21(x3)-19(x2)----------------------|
B|----------------------16--------------------------------------------------|
G|--------------------------------------------------------------------------|
D|--------------------------------------------------------------------------|
A|--------------------------------------------------------------------------|
D|--------------------------------------------------------------------------|

e|-19(x3)-18(x9)-14(x2)-------14(x3)-16(x3)-14h16-14h16-14h16-14h16-14h16---|
B|---------------------16(x2)-----------------------------------------------|
G|--------------------------------------------------------------------------|
D|--------------------------------------------------------------------------|
A|--------------------------------------------------------------------------|
D|--------------------------------------------------------------------------|

e|-19(x3)-18(x3)-14(x9)----19(x3)-18(x3)-21(x3)-19(x2)----------------------|
B|----------------------16--------------------------------------------------|
G|--------------------------------------------------------------------------|
D|--------------------------------------------------------------------------|
A|--------------------------------------------------------------------------|
D|--------------------------------------------------------------------------|

then play this at 2:20...not too sure about the first chord =/
e|--------------------------------------------------------------------------|
B|--------------------------------------------------------------------------|
G|--------------------------------------------------------------------------|
D|-8---8~---8~--------------------------------------------------------------|
A|-6---6~---7~--------------------------------------------------------------|
D|--------------------------------------------------------------------------|

e|--------------------------------------------------------------------------|
B|-------------4(x3)-2(x3)-4(x3)-2(x3)-4(x2)------------4(x3)-2(x5)-4(x8)---|
G|-3(x8)-4(x8)-------------------------------3(x8)-4(x8)--------------------|
D|--------------------------------------------------------------------------|
A|--------------------------------------------------------------------------|
D|--------------------------------------------------------------------------|

repeat this 4 times
e|--------------------------------------------------------------------------|
B|-----------------2h4-2h4-2h4----------------------------------------------|
G|-3-3-3-3-3h4-4-4----------------------------------------------------------|
D|--------------------------------------------------------------------------|
A|--------------------------------------------------------------------------|
D|--------------------------------------------------------------------------|

then at 2:48
e|--------------------------------------------------------------------------|
B|--------------------------------------------------------------------------|
G|-3~-6~-4~-3---------------------------------------------------------------|
D|--------------------------------------------------------------------------|
A|--------------------------------------------------------------------------|
D|--------------------------------------------------------------------------|

then repeat the part from earlier that starts at 1:55..im too lazy to put up the rest
now haha..definitely soon tho

LiveInternet