AllChordsTabs.com

Kina Grannis - Heart And Mind (First Version) Chords and Tabs


Artists:
Chords and Tabs » K » Kina Grannis - Heart And Mind (First Version)

Kina Grannis - Heart And Mind (First Version)

Kina Grannis - Heart And Mind (First Version) Chords / Tabs

Kina Grannis - Heart And Mind First Version: chords and tabs for the song. Watch chords and tablatures for all songs of the singer (group) Kina Grannis. Other chords and tabs for the "Heart And Mind" can find at the bottom of the page.

----------------------------------------------------------------------------
----------------------------------------------------------------------------


the site and got some of the picking way off (mainly the bass notes). I hope
this gets accepted because every update I've done recently has been rejected
and I know that the edit's where more accurate...irritated.

Tuning: Capo 6

Chords Used:
D         xx0232
G/B       x20033
Cadd9     x23033
Am7       x02010
C/B       x20010
C         x32010
G         320033
Dsus4/F#  200333
Em7       022033

Intro:
D                           G/B             Cadd9
e|-------2-------2-------2p0-------------------------------------------|
B|---3-------3-------3-------3-------3-------3-------3-------3-------3-|
G|-----2-------2-------2---------0-------0-------0-------0-------0-----|
D|-0-------0-------0---------------0-------0-------0-------0-------0---|
A|-----------------------------2-------2-------3-------3-------3-------|
E|---------------------------------------------------------------------|

Verse:
D                           G/B             Cadd9
e|-------2-------2-------2p0-------------------------------------------|
B|---3-------3-------3-------3-------3-------3-------3-------3-------3-|
G|-----2-------2-------2---------0-------0-------0-------0-------0-----|
D|-0-------0-------0---------------0-------0-------0-------0-------0---|
A|-----------------------------2-------2-------3-------3-------3-------|
E|---------------------------------------------------------------------|
I write you letters from right to left,

D                           G/B             Cadd9
e|-------2-------2-------2p0-------------------------------------------|
B|---3-------3-------3-------3-------3-------3-------3-------3-------3-|
G|-----2-------2-------2---------0-------0-------0-------0-------0-----|
D|-0-------0-------0---------------0-------0-------0-------0-------0---|
A|-----------------------------2-------2-------3-------3-------3-------|
E|---------------------------------------------------------------------|
To see if you have desire yet,

D                           G/B             Cadd9
e|-------2-------2-------2p0-------------------------------------------|
B|---3-------3-------3-------3-------3-------3-------3-------3-------3-|
G|-----2-------2-------2---------0-------0-------0-------0-------0-----|
D|-0-------0-------0---------------0-------0-------0-------0-------0---|
A|-----------------------------2-------2-------3-------3-------3-------|
E|---------------------------------------------------------------------|
To decipher what I said,

D                           G/B             Cadd9
e|-------2-------2-------2p0-------------------------------------------|
B|---3-------3-------3-------3-------3-------3-------3-------3-------3-|
G|-----2-------2-------2---------0-------0-------0-------0-------0-----|
D|-0-------0-------0---------------0-------0-------0-------0-------0---|
A|-----------------------------2-------2-------3-------3-------3-------|
E|---------------------------------------------------------------------|
And learn secrets from my head,

D                           G/B             Cadd9
e|-------2-------2-------2p0-------------------------------------------|
B|---3-------3-------3-------3-------3-------3-------3-------3-------3-|
G|-----2-------2-------2---------0-------0-------0-------0-------0-----|
D|-0-------0-------0---------------0-------0-------0-------0-------0---|
A|-----------------------------2-------2-------3-------3-------3-------|
E|---------------------------------------------------------------------|

Verse 2:
D                           G/B             Cadd9
e|-------2-------2-------2p0-------------------------------------------|
B|---3-------3-------3-------3-------3-------3-------3-------3-------3-|
G|-----2-------2-------2---------0-------0-------0-------0-------0-----|
D|-0-------0-------0---------------0-------0-------0-------0-------0---|
A|-----------------------------2-------2-------3-------3-------3-------|
E|---------------------------------------------------------------------|
It was hard for me to say,

D                           G/B             Cadd9
e|-------2-------2-------2p0-------------------------------------------|
B|---3-------3-------3-------3-------3-------3-------3-------3-------3-|
G|-----2-------2-------2---------0-------0-------0-------0-------0-----|
D|-0-------0-------0---------------0-------0-------0-------0-------0---|
A|-----------------------------2-------2-------3-------3-------3-------|
E|---------------------------------------------------------------------|
those three words that are so brave,

D                           G/B             Cadd9
e|-------2-------2-------2p0-------------------------------------------|
B|---3-------3-------3-------3-------3-------3-------3-------3-------3-|
G|-----2-------2-------2---------0-------0-------0-------0-------0-----|
D|-0-------0-------0---------------0-------0-------0-------0-------0---|
A|-----------------------------2-------2-------3-------3-------3-------|
E|---------------------------------------------------------------------|
I almost kept them locked away,

D                           G/B             Cadd9
e|-------2-------2-------2p0-------------------------------------------|
B|---3-------3-------3-------3-------3-------3-------3-------3-------3-|
G|-----2-------2-------2---------0-------0-------0-------0-------0-----|
D|-0-------0-------0---------------0-------0-------0-------0-------0---|
A|-----------------------------2-------2-------3-------3-------3-------|
E|---------------------------------------------------------------------|
deep inside where they'd be safe.

D                           G/B             Cadd9
e|-------2-------2-------2p0-------------------------------------------|
B|---3-------3-------3-------3-------3-------3-------3-------3-------3-|
G|-----2-------2-------2---------0-------0-------0-------0-------0-----|
D|-0-------0-------0---------------0-------0-------0-------0-------0---|
A|-----------------------------2-------2-------3-------3-------3-------|
E|---------------------------------------------------------------------|

Pre-Chorus:
Am7             C/B             C               C/B
e|-----------------------------------------------------------------|
B|-------1-------1-------1-------1-------1-------1-------1-------1-|
G|---0-------0-------0-------0-------0-------0-------0-------0-----|
D|-----2-------2-------0-------0-------2-------2-------2-------0---|
A|-0-------0-------2-------2-------3-------3-------3-------2-------|
E|-----------------------------------------------------------------|
Always tryin to find

Am7             C/B             C               C/B
e|-----------------------------------------------------------------|
B|-------1-------1-------1-------1-------1-------1-------1-------1-|
G|---0-------0-------0-------0-------0-------0-------0-------0-----|
D|-----2-------2-------0-------0-------2-------2-------2-------0---|
A|-0-------0-------2-------2-------3-------3-------3-------2-------|
E|-----------------------------------------------------------------|
A safer place to hide.

Chorus:
G                               Dsus4/F#
e|-----------------------------------------------------------------|
B|-------3-------3-------3-------3-------3-------3-------3-------3-|
G|---0-------0-------0-------0-------2-------2-------2-------2-----|
D|------0------0-------0-------0-------0-------0-------0-------0---|
A|-----------------------------------------------------------------|
E|-3-------3-------3-------3-------2-------2-------2-------2-------|
Always felt I was protecting my

Em7                             Cadd9
e|-----------------------------------------------------------------|
B|-------3-------3-------3-------3-------3-------3-------3-------3-|
G|---0-------0-------0-------0-------0-------0-------0-------0-----|
D|-----0-------0-------0-------0-------2-------2-------2-------2---|
A|---------------------------------3-------3-------3-------3-------|
E|-0-------0-------0-------0---------------------------------------|
Heart and mind, heart and mind

G                               Dsus4/F#
e|-----------------------------------------------------------------|
B|-------3-------3-------3-------3-------3-------3-------3-------3-|
G|---0-------0-------0-------0-------2-------2-------2-------2-----|
D|------0------0-------0-------0-------0-------0-------0-------0---|
A|-----------------------------------------------------------------|
E|-3-------3-------3-------3-------2-------2-------2-------2-------|
but it seems like, to really feel alive

Em7                             Cadd9
e|-----------------------------------------------------------------|
B|-------3-------3-------3-------3-------3-------3-------3-------3-|
G|---0-------0-------0-------0-------0-------0-------0-------0-----|
D|-----0-------0-------0-------0-------2-------2-------2-------2---|
A|---------------------------------3-------3-------3-------3-------|
E|-0-------0-------0-------0---------------------------------------|
I cannot hide my heart and mind.

G                               Dsus4/F#
e|-----------------------------------------------------------------|
B|-------3-------3-------3-------3-------3-------3-------3-------3-|
G|---0-------0-------0-------0-------2-------2-------2-------2-----|
D|------0------0-------0-------0-------0-------0-------0-------0---|
A|-----------------------------------------------------------------|
E|-3-------3-------3-------3-------2-------2-------2-------2-------|

Em7                             Cadd9
e|-----------------------------------------------------------------|
B|-------3-------3-------3-------3-------3-------3-------3-------3-|
G|---0-------0-------0-------0-------0-------0-------0-------0-----|
D|-----0-------0-------0-------0-------2-------2-------2-------2---|
A|---------------------------------3-------3-------3-------3-------|
E|-0-------0-------0-------0---------------------------------------|

Verse:
D                           G/B             Cadd9
e|-------2-------2-------2p0-------------------------------------------|
B|---3-------3-------3-------3-------3-------3-------3-------3-------3-|
G|-----2-------2-------2---------0-------0-------0-------0-------0-----|
D|-0-------0-------0---------------0-------0-------0-------0-------0---|
A|-----------------------------2-------2-------3-------3-------3-------|
E|---------------------------------------------------------------------|
And I don't why I get shy

D                           G/B             Cadd9
e|-------2-------2-------2p0-------------------------------------------|
B|---3-------3-------3-------3-------3-------3-------3-------3-------3-|
G|-----2-------2-------2---------0-------0-------0-------0-------0-----|
D|-0-------0-------0---------------0-------0-------0-------0-------0---|
A|-----------------------------2-------2-------3-------3-------3-------|
E|---------------------------------------------------------------------|
Tucked away inside my mind

D                           G/B             Cadd9
e|-------2-------2-------2p0-------------------------------------------|
B|---3-------3-------3-------3-------3-------3-------3-------3-------3-|
G|-----2-------2-------2---------0-------0-------0-------0-------0-----|
D|-0-------0-------0---------------0-------0-------0-------0-------0---|
A|-----------------------------2-------2-------3-------3-------3-------|
E|---------------------------------------------------------------------|
scared to let someone inside

D                           G/B             Cadd9
e|-------2-------2-------2p0-------------------------------------------|
B|---3-------3-------3-------3-------3-------3-------3-------3-------3-|
G|-----2-------2-------2---------0-------0-------0-------0-------0-----|
D|-0-------0-------0---------------0-------0-------0-------0-------0---|
A|-----------------------------2-------2-------3-------3-------3-------|
E|---------------------------------------------------------------------|
I sit silent in disguise

D                           G/B             Cadd9
e|-------2-------2-------2p0-------------------------------------------|
B|---3-------3-------3-------3-------3-------3-------3-------3-------3-|
G|-----2-------2-------2---------0-------0-------0-------0-------0-----|
D|-0-------0-------0---------------0-------0-------0-------0-------0---|
A|-----------------------------2-------2-------3-------3-------3-------|
E|---------------------------------------------------------------------|

Pre-Chorus:
Am7             C/B             C               C/B
e|-----------------------------------------------------------------|
B|-------1-------1-------1-------1-------1-------1-------1-------1-|
G|---0-------0-------0-------0-------0-------0-------0-------0-----|
D|-----2-------2-------0-------0-------2-------2-------2-------0---|
A|-0-------0-------2-------2-------3-------3-------3-------2-------|
E|-----------------------------------------------------------------|
Always tryin to find

Am7             C/B             C               C/B
e|-----------------------------------------------------------------|
B|-------1-------1-------1-------1-------1-------1-------1-------1-|
G|---0-------0-------0-------0-------0-------0-------0-------0-----|
D|-----2-------2-------0-------0-------2-------2-------2-------0---|
A|-0-------0-------2-------2-------3-------3-------3-------2-------|
E|-----------------------------------------------------------------|
A safer place to hide.

Chorus:
G                               Dsus4/F#
e|-----------------------------------------------------------------|
B|-------3-------3-------3-------3-------3-------3-------3-------3-|
G|---0-------0-------0-------0-------2-------2-------2-------2-----|
D|------0------0-------0-------0-------0-------0-------0-------0---|
A|-----------------------------------------------------------------|
E|-3-------3-------3-------3-------2-------2-------2-------2-------|
Always felt I was protecting my

Em7                             Cadd9
e|-----------------------------------------------------------------|
B|-------3-------3-------3-------3-------3-------3-------3-------3-|
G|---0-------0-------0-------0-------0-------0-------0-------0-----|
D|-----0-------0-------0-------0-------2-------2-------2-------2---|
A|---------------------------------3-------3-------3-------3-------|
E|-0-------0-------0-------0---------------------------------------|
Heart and mind, heart and mind

G                               Dsus4/F#
e|-----------------------------------------------------------------|
B|-------3-------3-------3-------3-------3-------3-------3-------3-|
G|---0-------0-------0-------0-------2-------2-------2-------2-----|
D|------0------0-------0-------0-------0-------0-------0-------0---|
A|-----------------------------------------------------------------|
E|-3-------3-------3-------3-------2-------2-------2-------2-------|
but it seems like, to really feel alive

Em7                             Cadd9
e|-----------------------------------------------------------------|
B|-------3-------3-------3-------3-------3-------3-------3-------3-|
G|---0-------0-------0-------0-------0-------0-------0-------0-----|
D|-----0-------0-------0-------0-------2-------2-------2-------2---|
A|---------------------------------3-------3-------3-------3-------|
E|-0-------0-------0-------0---------------------------------------|
I cannot hide my heart and mind.

G                               Dsus4/F#
e|-----------------------------------------------------------------|
B|-------3-------3-------3-------3-------3-------3-------3-------3-|
G|---0-------0-------0-------0-------2-------2-------2-------2-----|
D|------0------0-------0-------0-------0-------0-------0-------0---|
A|-----------------------------------------------------------------|
E|-3-------3-------3-------3-------2-------2-------2-------2-------|


Em7                             Cadd9
e|-----------------------------------------------------------------|
B|-------3-------3-------3-------3-------3-------3-------3-------3-|
G|---0-------0-------0-------0-------0-------0-------0-------0-----|
D|-----0-------0-------0-------0-------2-------2-------2-------2---|
A|---------------------------------3-------3-------3-------3-------|
E|-0-------0-------0-------0---------------------------------------|

Bridge:
Am7             C/B             C               C/B
e|-----------------------------------------------------------------|
B|-------1-------1-------1-------1-------1-------1-------1-------1-|
G|---0-------0-------0-------0-------0-------0-------0-------0-----|
D|-----2-------2-------0-------0-------2-------2-------2-------0---|
A|-0-------0-------2-------2-------3-------3-------3-------2-------|
E|-----------------------------------------------------------------|
The day I found the stregnth inside me

Am7             C/B             C               C/B
e|-----------------------------------------------------------------|
B|-------1-------1-------1-------1-------1-------1-------1-------1-|
G|---0-------0-------0-------0-------0-------0-------0-------0-----|
D|-----2-------2-------0-------0-------2-------2-------2-------0---|
A|-0-------0-------2-------2-------3-------3-------3-------2-------|
E|-----------------------------------------------------------------|
just by finally realising.

Am7             C/B             C               C/B
e|-----------------------------------------------------------------|
B|-------1-------1-------1-------1-------1-------1-------1-------1-|
G|---0-------0-------0-------0-------0-------0-------0-------0-----|
D|-----2-------2-------0-------0-------2-------2-------2-------0---|
A|-0-------0-------2-------2-------3-------3-------3-------2-------|
E|-----------------------------------------------------------------|
Its the truth that is inside, that i really cannot hide

Am7             C/B             C  you can pause here.  C/B
e|-----------------------------------------------------------------|
B|-------1-------1-------1-------1-------1-------1-------1-------1-|
G|---0-------0-------0-------0-------0-------0-------0-------0-----|
D|-----2-------2-------0-------0-------2-------2-------2-------0---|
A|-0-------0-------2-------2-------3-------3-------3-------2-------|
E|-----------------------------------------------------------------|
my.... heart and mind

Chorus:
G                               Dsus4/F#
e|-----------------------------------------------------------------|
B|-------3-------3-------3-------3-------3-------3-------3-------3-|
G|---0-------0-------0-------0-------2-------2-------2-------2-----|
D|------0------0-------0-------0-------0-------0-------0-------0---|
A|-----------------------------------------------------------------|
E|-3-------3-------3-------3-------2-------2-------2-------2-------|
Always felt I was protecting my

Em7                             Cadd9
e|-----------------------------------------------------------------|
B|-------3-------3-------3-------3-------3-------3-------3-------3-|
G|---0-------0-------0-------0-------0-------0-------0-------0-----|
D|-----0-------0-------0-------0-------2-------2-------2-------2---|
A|---------------------------------3-------3-------3-------3-------|
E|-0-------0-------0-------0---------------------------------------|
Heart and mind, heart and mind

G                               Dsus4/F#
e|-----------------------------------------------------------------|
B|-------3-------3-------3-------3-------3-------3-------3-------3-|
G|---0-------0-------0-------0-------2-------2-------2-------2-----|
D|------0------0-------0-------0-------0-------0-------0-------0---|
A|-----------------------------------------------------------------|
E|-3-------3-------3-------3-------2-------2-------2-------2-------|
but it seems like, to really feel alive

Em7                             Cadd9
e|-----------------------------------------------------------------|
B|-------3-------3-------3-------3-------3-------3-------3-------3-|
G|---0-------0-------0-------0-------0-------0-------0-------0-----|
D|-----0-------0-------0-------0-------2-------2-------2-------2---|
A|---------------------------------3-------3-------3-------3-------|
E|-0-------0-------0-------0---------------------------------------|
I cannot hide my heart and mind.


G                               Dsus4/F#
e|-----------------------------------------------------------------|
B|-------3-------3-------3-------3-------3-------3-------3-------3-|
G|---0-------0-------0-------0-------2-------2-------2-------2-----|
D|------0------0-------0-------0-------0-------0-------0-------0---|
A|-----------------------------------------------------------------|
E|-3-------3-------3-------3-------2-------2-------2-------2-------|

Em7                             Cadd9
e|-------------------------------------------------------------------|
B|-------3-------3-------3-------3-------3-------3-------3-------3-3-|
G|---0-------0-------0-------0-------0-------0-------0-------0-------|
D|-----0-------0-------0-------0-------2-------2-------2-------2-----|
A|---------------------------------3-------3-------3-------3---------|
E|-0-------0-------0-------0---------------------------------------3-|
I cannot hide my heart and mind.

LiveInternet