AllChordsTabs.com

Chuck Ragan - God Deciding (First Version) Chords and Tabs


Artists:
Chords and Tabs » C » Chuck Ragan - God Deciding (First Version)

Chuck Ragan - God Deciding (First Version)

Chuck Ragan - God Deciding (First Version) Chords / Tabs

Chuck Ragan - God Deciding First Version: chords and tabs for the song. Watch chords and tablatures for all songs of the singer (group) Chuck Ragan. Other chords and tabs for the "God Deciding" can find at the bottom of the page.

This version on Loz Feliz released by Chuck Ragan.

This is the acoustic version of the Hot Water Music song "God Deciding" originally
on the Alkaline Trio/Hot Water Music Split CD.

These are just the chords it would take too long for me to write out the amount of times
strums it out and the rythm. it's not hard to figure out just listen to the song for
and note lenths.

Standard Tuning
~ = ring out

Intro

e|--0--|
b|--0--|
g|--6--|
d|--6--|
a|--4--|
e|-----|


Verse ("Transgressions are made while cowards convey...")
e|--0---0---0---0---0---0---0---0---0---0---0---0---0--|
b|--0---0---0---0---0---0---0---0---0---0---0---0---0--|
g|--6---2---1---6---2---1---6---2---1---6---2---1---4--|
d|--6---2---2---6---2---2---6---2---2---6---2---2---4--|
a|--4---0---2---4---0---2---4---0---2---4---0---2---2--|
e|----------0-----------0-----------0-----------0------|


Chorus ("Crush it all to burn it down...")
e|--0~--0~--0---0~--0~--|
b|--0~--0~--0---0~--0~--|
g|--2~--4~--6---2~--4~--|
d|--2~--4~--6---2~--4~--|
a|--0~--2~--4---0~--2~--|
e|----------------------|


Break
e|--0--|
b|--0--|
g|--6--|
d|--6--|
a|--4--|
e|-----|


Verse (faster) ("Make a Martyr, pedestal with ribbons of slaughter...")
e|--0---0---0---0---0---0---0---0---0---0---0---0--|
b|--0---0---0---0---0---0---0---0---0---0---0---0--|
g|--6---2---1---6---2---1---6---2---1---6---2---4--|
d|--6---2---2---6---2---2---6---2---2---6---2---4--|
a|--4---0---2---4---0---2---4---0---2---4---0---2--|
e|----------0-----------0-----------0--------------|

Chorus ("Whose to blame for all the tears?")
e|--0---0---0---0---|
b|--0---0---0---0---|
g|--2---4---6---2---|
d|--2---4---6---2---|
a|--0---2---4---0---|
e|------------------| x4 (last time dont play the A keep going with C#)


Outro ("Out of mind...")
e|--0--|
b|--0--|
g|--6--|
d|--6--|
a|--4--|
e|-----|

LiveInternet