AllChordsTabs.com

Pierce The Veil - Currents Convulsive (First Version) Chords and Tabs


Artists:
Chords and Tabs » P » Pierce The Veil - Currents Convulsive (First Version)

Pierce The Veil - Currents Convulsive (First Version)

Pierce The Veil - Currents Convulsive (First Version) Chords / Tabs

Pierce The Veil - Currents Convulsive First Version: chords and tabs for the song. Watch chords and tablatures for all songs of the singer (group) Pierce The Veil. Other chords and tabs for the "Currents Convulsive" can find at the bottom of the page.

[Intro] (Guitar 1: Vic)

e|-------------------------------------|
B|-------------------------------------|
G|-------------------------------------|
D|-------------------------------------| [x2]
A|---4--0-----4--0-----2--0----2--0----|
D|-4--------4--------2-------2---------|


e|-------------------------------------|
B|-------------------------------------|
G|-------------------------------------|
D|-------------------------------------| [x2]
A|---2--0-----2--0-----4--0----4--0----|
D|-0-------0---------0-------0---------|



(Guitar 2: Tony) (Played after VIc finishes first sequence above ^)

e|-0--------|-----------------------------------------------|
B|----2-----|-----------------------------------------------|
G|----------|--14-14-14---11-11-11---13-13-13-13-13-13------|
D|----------|---x--x--x----x--x--x----x--x--x--x--x--x------| [Second section x2]
A|----------|--12-12-12----9--9--9---11-11-11-11-11-11------|
D|----------|-----------------------------------------------|

(If you do not want to do Tony's part then repeat the first sequence above his part!)

But continuing on...

e|-------------------------------------|
B|-------------------------------------|
G|-------------------------------------|
D|-------------------------------------| [x2]
A|---2--0-----2--0-----4--0----4--0----|
D|-0-------0---------0-------0---------|

e|-------------------------------------|----------|
B|-------------------------------------|----------|
G|-------------------------------------|----------|
D|-------------------------------------|---4-----|
A|---12--0----12--0-----14--0---14--0--|---4-----|
D|-0--------0---------0--------0-------|---4-----|

[Verse]

'Congratulations!..'

e|------------|
B|------------|
G|------------|
D|----2------|
A|----2------|
D|----2------|

e|---------------------|--------------------|
B|----13-14------------|-------11-14--------|
G|-11------------------|----11--------------|
D|--------------[x5]---|---------------[x5]-|
A|---------------------|--------------------|
D|---------------------|--------------------|

e|--------------------------0-----------------|
B|--------------------------0-----------------|
G|--------------------------0-----------------|
D|-4-----------------------------------------|
A|-4--------2/4h5p4--3----------------------|
D|-4------4----------3----------------------|


e|---------------------|---------------------------|
B|----13-14------------|-------11-14---------------|
G|-11------------------|----11-----------------14~-|
D|--------------[x5]---|---------------[x5]--------|
A|---------------------|---------------------------|
D|---------------------|---------------------------|

[Chorus] 'I don't think you'll ever want to love me...'

e|----------------------------------|-----------------------------------------------------|
B|----------------------------------|-----------------------------------------------------|
G|-14---------------13--------------|-----------------------------------------------------|
D|--x--[About x14]---x--[About x8]--|------------------0-0-0-0-0-0-0-0-0-0-0-0-0-0-0-0-0--|
A|-12---------------11--------------|------------------0-0-0-0-0-0-0-0-0-0-0-0-0-0-0-0-0--|
D|----------------------------------|-x-x-x-x-x-x-x--0-0-0-0-0-0-0-0-0-0-0-0-0-0-0-0-0-0--|

[Verse] "Sober up..."

((PM (palm mute) this section))

e|-----------------------------|-------------------------------|
B|-----------------------------|-------------------------------|
G|-6-6-----6-6----6-6-----6-6--|-4-4-----4-4-----4-4-----4-4---|
D|-----7-7-----7-7----7-7------|-----2-2-----2-2-----2-2-------|
A|-----------------------------|-------------------------------|
D|-----------------------------|-------------------------------|

e|-------------------------------|
B|-------------------------------|
G|-------------------------------|
D|-2-2-----2-2/6-6--4-4--2-2-----|
A|-----2-2-----------------------|
D|-------------------------------|

e|----------------------------|--------------------------------|
B|----------------------------|--------------------------------|
G|-6-6-----6-6----6-6-----6-6-|--4-4-----4-4-----4-4-----4-4---|
D|-----7-7-----7-7----7-7-----|------2-2-----2-2-----2-2-------|
A|----------------------------|--------------------------------|
D|----------------------------|--------------------------------|

e|-------------------------------|
B|-------------------------------|
G|-------------------------------|
D|-2-2-----2-2/6-6--4-4--2-2-----|
A|-----2-2-----------------------|
D|-------------------------------|

(Release palm mute)

"When I sew you up..."

e|-----------------------------|
B|-----------------------------|
G|-2-2------2---2---2h4--------|
D|-----4-4----4---4------------| [x6]
A|-----------------------------|
D|-----------------------------|

e|--------------------------|
B|--------------------------|
G|-1/-4-2-/4--6-/9-7-6~---|
D|--------------------------|
A|--------------------------|
D|--------------------------|

[Chorus] 'I don't think you'll ever want to love me...'

e|----------------------------------|-----------------------------------------------------|
B|----------------------------------|-----------------------------------------------------|
G|-14---------------13--------------|-----------------------------------------------------|
D|--x--[About x14]---x--[About x8]--|------------------0-0-0-0-0-0-0-0-0-0-0-0-0-0-0-0-0--|
A|-12---------------11--------------|------------------0-0-0-0-0-0-0-0-0-0-0-0-0-0-0-0-0--|
D|----------------------------------|-x-x-x-x-x-x-x--0-0-0-0-0-0-0-0-0-0-0-0-0-0-0-0-0-0--|


"Lie, lie lie..."

e|------------------------------|----------------------------------------------------|
B|------------------------------|----------------------------------------------------|
G|-4---4---4---4-4-4-4-4-4-4-4/-|--14-14-14-14-14-14-14-14---7-7-7-7-7-7---6-6-6-6---|
D|-2---2---2---2-2-2-2-2-2-2-2/-|---x--x--x--x--x--x--x--x---x-x-x-x-x-x---x-x-x-x---|
A|------------------------------|--12-12-12-12-12-12-12-12---5-5-5-5-5-5---4-4-4-4---|
D|------------------------------|----------------------------------------------------|

"Gather round..." (Play this part kinda fast)

(Guitar 2: Tony)

e|-14-14-17-14-16-14-14-19-14-14-17-14-16-14------|
B|------------------------------------------------|
G|------------------------------------------------| [x2]
D|------------------------------------------------|
A|------------------------------------------------|
D|------------------------------------------------|

e|-13-13-16-13-17-13-13-16-13-17-13-16-13-17------|
B|------------------------------------------------|
G|------------------------------------------------|
D|------------------------------------------------| [x2]
A|------------------------------------------------|
D|------------------------------------------------|

(If you aren't worried about playing the other guitar part then keep playing this til
Vic sings "Beyond a sea blue light")

(Guitar 1: Vic)

e|--------------|---------------|--------------|----------------|
B|--------------|---------------|--------------|----------------|
G|--11-9-7-6--|--/11-9-7-6--|--/9-7-6-4--|--/9-7-6-4----|
D|--------------|---------------|--------------|----------------|
A|--------------|---------------|--------------|----------------|
D|--------------|---------------|--------------|----------------|

e|------------------------------------------|-----------------------------------------|
B|------------------12-15br-12--------------|------------12-15br-12-------------------|
G|-11/12h14br-11-14------------14-11-14-11--|-14br-11-14------------14-11-14-10-------|
D|------------------------------------------|-----------------------------------------|
A|------------------------------------------|-----------------------------------------|
D|------------------------------------------|-----------------------------------------|

e|-----------------------------------------|---------|
B|-14-14-14-14-14-14-14-14-14-14-14-14(N)--|---------|
G|-----------------------------------------|--10~----|
D|-----------------------------------------|---------|
A|-----------------------------------------|---------|
D|-----------------------------------------|---------|

(N = Tremolo)

e|---------------------------------------|------------------|
B|-12-12-12-12-12-12-12-12-12-12-12-(N)-|--12b-(N)---------|
G|--------------------------------------|------------------|
D|--------------------------------------|------------------|
A|--------------------------------------|------------------|
D|--------------------------------------|------------------|

(Keep on doing the tremolo as you bend)

"Beyond the sea blue light..."

e|-----------------|-----------------|
B|---10------------|---9-------------|
G|---11------------|--10-------------|
D|---------[x14]---|---------[x14]---| [x2]
A|-----------------|-----------------|
D|-----------------|-----------------|

"Our operation, cut off the operation" (More Tremolo parts)

e|-17-17-17-17-17-17-17-17-17-17-17-17--|--17N---|
B|--------------------------------------|--------|
G|--------------------------------------|--------|
D|--------------------------------------|--------|
A|--------------------------------------|--------|
D|--------------------------------------|--------|

e|-16-16-16-16-16-16-16-16-16-16-16-16--|--16N---|
B|--------------------------------------|--------|
G|--------------------------------------|--------|
D|--------------------------------------|--------|
A|--------------------------------------|--------|
D|--------------------------------------|--------|

e|-17-17-17-17-17-17-17-17-17-17-17-17--|--17N---|
B|--------------------------------------|--------|
G|--------------------------------------|--------|
D|--------------------------------------|--------|
A|--------------------------------------|--------|
D|--------------------------------------|--------|

e|-16-16-16-16-16-16-16-16-16-16-16-16--|--16N---|
B|--------------------------------------|--------|
G|--------------------------------------|--------|
D|--------------------------------------|--------|
A|--------------------------------------|--------|
D|--------------------------------------|--------|


e|----------------|
B|----15----14----|
G|-12----12-------|
D|----------------|
A|----------------|
D|----------------|

[Outro]

e|--17-16-----|--17-16------|--17-16-----|--17-16------|--17-16--|
B|--------14--|---------14--|---------14-|---------14--|---------|
G|------------|-------------|------------|-------------|---------|
D|------------|-------------|------------|-------------|---------|
A|------------|-------------|------------|-------------|---------|
D|------------|-------------|------------|-------------|---------|


e|-----14-16---|-----14-16---|-----14-16---|-----14-16---|-----14-16---|-----14---|
B|--14---------|--14---------|--14---------|--14---------|--14---------|--14------|
G|-------------|-------------|-------------|-------------|-------------|----------|
D|-------------|-------------|-------------|-------------|-------------|----------|
A|-------------|-------------|-------------|-------------|-------------|----------|
D|-------------|-------------|-------------|-------------|-------------|----------|

(Repeat outro til it fades out.)

LiveInternet