AllChordsTabs.com

Surfer Blood - Floating Vibes (First Version) Chords and Tabs


Artists:
Chords and Tabs » S » Surfer Blood - Floating Vibes (First Version)

Surfer Blood - Floating Vibes (First Version)

Surfer Blood - Floating Vibes (First Version) Chords / Tabs

Surfer Blood - Floating Vibes First Version: chords and tabs for the song. Watch chords and tablatures for all songs of the singer (group) Surfer Blood. Other chords and tabs for the "Floating Vibes" can find at the bottom of the page.

-------------------------------------------------------------------------------
-------------------------------------------------------------------------------

Tuning: Standard

this is the closest I could figure it out.
I tabbed it in a similar way (hopefully) to how you might see it in a book or
magazine.
Arranged for two guitars.

I put X's above some of the tab to denote the beat so you could get some idea of
the timing without the proper notation.

Chords:

Amaj  5776xx
Bmaj  7998xx
E5    0799xx
A5    57xxxx
E     07xxxx
F#5   24xxxx

+-----------------------+----------------------------------------------------------
|Intro                  |
|0:00 - 0:46            |
+-----------------------+
_________________________      ________________________
|first 3 times            |    |4th time
X     X     X     X     X     X     X     X            X     X     X     X
(Guitars 1 & 2)                        [Play 4 times]
e|------------------------|------------------------||   -|------------------------|
B|------------------------|------------------------||   -|------------------------|
G|------------------------|------------------------||   -|------------------------|
D|------------------------|------------------------||   -|------------11-13-11-9--|
A|-7---------7-------7----|----7-------7-----7-----||   -|----7------(0)(0)(0)(0)-|
E|-0---------0-------0----|----0-------5-----5-----||   -|----0-------------------|
( ) = Guitar 2
only
X     X     X     X     X     X     X     X
(Guitar 1)
e||------------------------|------------------------|
B||------------------------|------------------------|
G||------------------------|------------------------|
D||-9-----9--9-----------9-|------------11-13-11-9--|
A||-11----11----11---------|---11-0-----0--0--0--0--|
E||------------------------|------0-----------------|
||                                                 |
||(Guitar 2)                                       |
e||------------------------|------------------------|
B||------------------------|------------------------|
G||------------------------|------------------------|
D||-9--------9-----------9-|------------11-13-11-9--|
A||-11----------11---------|---11-------------------|
E||------------------------|------------------------|


X     X     X     X     X     X     X     X
e|------------------------|------------------------|
B|------------------------|------------------------|
G|------------------------|------------------------|
D|-9----------------------|------------11-13-11-9--|
A|-11-------11----9-----7-|------7-----0--0--0--0--|
E|-------------0-----0----|---0--------------------|
|                                                 |
|                                                 |
e|------------------------|------------------------|
B|------------------------|------------------------|
G|------11-------11-------|11----------------------|
D|-9-------9--------9-----|---9--------11-13-11-9--|
A|-11---------11-------11-|-----11-----------------|
E|------------------------|------------------------|


X     X     X     X     X     X     X     X
e|------------------------|------------------------|
B|------------------------|------------------------|
G|---------8--------8-----|---8--------8-----8-----|
D|-9----------9--------9--|------9-----9-----9-----|
A|-11---11------11--------|11----------9-----9-----|
E|------------------------|------------7-----7-----|
|                                                 |
|                                                 |
e|------------------------|------------------------|
B|------------------------|------------------------|
G|------11--------11------|11----------------------|
D|-9--------9--------9----|---9--------9-----9-----|
A|-11----------11-------11|------11----9-----9-----|
E|------------------------|------------7-----7-----|


X     X     X     X     X     X     X     X
(Guitars 1 & 2)                        [Play 2 times]*
e|------------------------|------------------------||
B|------------------------|------------------------||
G|------------------------|------------------------||
D|-9---------9-------9----|----9-------11-13-11-9--||
A|-7---------7-------7----|----7------(0)(0)(0)(0)-||
E|-0---------0-------0----|----0-------------------||
"Forget the second..."**

*  There are variations in how the guitars are played the 2nd time through
** Singing starts 2nd time through


+-----------------------+
|Verse                  |
|0:46 - 1:16            |
+-----------------------+

_________________________      ________________________
(Guitars 1 & 2)           |first 3 times            |    |4th time
[play 3 times]
e||||---------------------|------------------------||   -|------------------------|
B||||---------------------|------------------------||   -|------------------------|
G||||---------------------|------------------------||   -|------------8-----8-----|
D||||-9-------------------|------------11-13-11-9--||   -|------------9-----9-----|
A||||-11------------------|-----------(0)(0)(0)(0)-||   -|------------9-----9-----|
E||||---------------------|------------------------||   -|------------7-----7-----|
"coming               I need you in the here and"
"Now                    Instead of dreamin' up a"
"way to spread your name across                                  the world"
"leavin'                    I wasn't thirsty for"
"revenge                             No I wasn't"
"disappointed much at...                                         back"

_________________________      ________________________
|1st time through         |    |2nd time through

e|------------------------|------------------------||   -|------------------------|
B|------------------------|------------------------||   -|------------------------|
G|------------------------|------------------------||   -|--------------***-------|
D|-9---------9-------9----|----9-------11-13-11-9--||   -|----9-------x----x----|
A|-7---------7-------7----|----7------(0)(0)(0)(0)-||   -|----7-------x----x----|
E|-0---------0-------0----|----0-------------------||   -|----0-------x----x----|
"some how                  When you told me you were"
"again"
*** fret at random location
above 12th fret

+-----------------------+
|Solo                   |
|1:16 - 1:31            |
+-----------------------+

(Guitar 1 plays chords above tab)
________________________      ________________________
|1st time                     |2nd time
X     X     X     X     X     X     X     X           X     X     X     X
Amaj                    E5                            Emaj
e||-------12----12---------|------------------------|   -|------------------------|
B||-12/(14)---------14--12-|9/(12)------------------|   -|12(9)------------------|
G||------------------------|------------------------|   -|------------------------|
D||------------------------|------------------------|   -|------------------------|
A||------------------------|------------------------|   -|------------------------|
E||------------------------|------------------------|   -|------------------------|

X     X     X     X     X     X     X     X
Amaj       /Bmaj        E5
e|------------------------|------------------------||
B|------------------------|------------------------||
G|----9-----------11------|------------------------||
D|-11------11/13-------13-|14----------------------||
A|------------------------|------------------------||
E|------------------------|------------------------||


+-----------------------+
|2nd Verse              |
|1:31 - 2:36            |
+-----------------------+

(Guitar 1 plays chords above tab, palm muted)
X     X     X     X     X     X     X     X
A5                      E
e||------------------------|------------------------|
B||------------------------|------------------------|
G||------------------------|------------------------|
D||------------------------|------------------------|
A||-7---7-----7-7---6----4-|2-----------------------|
E||------------------------|---4--------------------|
"If you're movin' out to the west"
"The tide will break in on itself"

"If you're gonna do it then do it"
"I swear that ocean it swallowed me fully"


X     X     X     X     X     X     X     X
A5          F#5         E           [play 4 times]
e|------------------------|------------------------||
B|------------------------|------------------------||
G|------------------------|------------------------||
D|------------------------|------------------------||
A|------------------------|------------------------||
E|-5---5-----5-2---4----2-|4/0****-----------------||
"Then you'd better learn how to surf"
"There are no ghosts to unearth"

"Otherwise you just might lose your nerve"
"And it might have to follow you home"

**** 1st and 2nd times / 2nd and 4th times

(Guitars 1 & 2)
e|------------------------|------------------------|
B|------------------------|------------------------|
G|-5--5--5--5--5--5--5--5-|6--6--6--6--8--8--8--8--|
D|-6--6--6--6--6--6--6--6-|7--7--7--7--9--9--9--9--|
A|-6--6--6--6--6--6--6--6-|7--7--7--7--9--9--9--9--|
E|-4--4--4--4--4--4--4--4-|5--5--5--5--7--7--7--7--|
"Ahhhhh..."

(Guitar 1 plays chords above tab)
Emaj                      A5
e||-------------------------|------------------------||
B||-----12----12----12----12|----12----12----12----12||
G||14b16--(16)--(16)--(16)--|(16)--(16)--(16)--(16)--||
D||-------------------------|------------------------||
A||-------------------------|------------------------||
E||-------------------------|------------------------||

Emaj                    A5
e|------------------------|------------------------|
B|-21------------------19-|---------------------17-|
G|-TP------------------TP-|---------------------TP-|
D|------------------------|------------------------|
A|------------------------|------------------------|
E|------------------------|------------------------|

Emaj                    A5
e|------------------------|------------------------|
B|------------------------|19----------------------|
G|------------------------|TP----------------------|
D|------------------------|------------------------|
A|------------------------|------------------------|
E|------------------------|------------------------|

_________________________     ________________________
|first 3 times            |   |4th time
X     X     X     X     X     X     X     X           X     X     X     X
(Guitars 1 & 2)                         [play 4 times]
e||------------------------|------------------------||  -|------------------------|
B||------------------------|------------------------||  -|------------------------|
G||------------------------|------------------------||  -|------------------------|
D||------------------------|------------------------||  -|------------------------|
A||-7---------7-------7----|----7-------7-----7-----||  -|------------------------|
E||-0---------0-------0----|----0-------5-----5-----||  -|------------------------|


+-----------------------+
|Bridge                 |
|2:36 - 3:06            |
+-----------------------+

(Guitars 1 & 2)
e||------------------------|------------------------|
B||------------------------|------------------------|
G||-6----------------------|8-----------------------|
D||-7----------------------|9-----------------------|
A||-7----------------------|9-----------------------|
E||-5----------------------|7-----------------------|
"When you wake up in...     hear that awful"
You could seal it in...     Tuck it away in your"


e|------------------------|------------------------|
B|------------------------|------------------------|
G|-9----------------------|------------------------|
D|-9----------------------|------------11-13-11-9--|
A|-7----------------------|-----------(0)(0)(0)(0)-|
E|-0----------------------|------------------------|
"applause                    Put it in your f**kin'"
"safe                  But you can't take it to the"

[There are variations in how the guitars are played the second time through]

X     X     X     X     X     X     X     X
(Guitar 1)
e|------------------------|------------------------|
B|------------------------|------------------------|
G|------------------------|------------8-----8-----|
D|-9--------9--------9----|---9--------9-----9-----|
A|-11----------11-11----11|11---11-----9-----9-----|
E|------------------------|------------7-----7-----|
|                                                 |
|(Guitar 2)                                       |
e|------------------------|------------------------|
B|------------------------|------------------------|
G|------------------------|------------------------|
D|-9--------9--------9----|---9--------9-----9-----|
A|-11----------11-------11|-----11-----9-----9-----|
E|----------------12------|12----------7-----7-----|
"napkin                                And watch it"
"bank                         And you can't take it"

(Guitars 1 & 2)
e|------------------------|------------------------||
B|------------------------|------------------------||
G|------------------------|------------------------||
D|-9---------9-------9----|------------------------||
A|-7---------7-------7----|------------------------||
E|-0---------0-------0----|------------------------||
"dissolve"
"back"


+-----------------------+
|Breakdown              |
|3:06 - 3:21            |
+-----------------------+

(Guitar 1 - Synth arranged for guitar)
e||------------------------|------------------------|
B||-9-----------7----------|5-----------0-----------|
G||------------------------|------------------------|
D||------------------------|------------------------|
A||------------------------|------------------------|
E||------------------------|------------------------|
||                                                 |
||(Guitar 2)                                       |
e||------------------------|------------------------|
B||------------------------|------------12-12-12-12-|
G||-------------11-11-11-11|11-9--9--9--9--9--9--9--|
D||-11-9--9--9--9--9--9--9-|11-11-11-11-11-11-11-11-|
A||-11-11-11-11-11-11-11-11|------------------------|
E||------------------------|------------------------|


e|------------------------|------------------------||
B|-5-----------4----------|2-----------0-----------||
G|------------------------|------------------------||
D|------------------------|------------------------||
A|------------------------|------------------------||
E|------------------------|------------------------||
|                                                 ||
|                                                 ||
e|------------------------|------------------------||
B|------------------------|------------12-12-12-12-||
G|-------------11-11-11-11|11-9--9--9--9--9--9--9--||
D|-11-9--9--9--9--9--9--9-|11-11-11-11-11-11-11-11-||
A|-11-11-11-11-11-11-11-11|------------------------||
E|------------------------|------------------------||


+-----------------------+
|Outro                  |
|3:21 - end             |
+-----------------------+

________________________       ________________________
|1st and 2nd times             |3rd time
X     X     X     X     X     X     X     X           X     X     X     X
(Guitar 1)
e|-------12----12---------|------------------------|    -|------------------------|
B|-12/(14)---------14--12-|9/(12)------------------|    -|12(9)------------------|
G|------------------------|------------------------|    -|------------------------|
D|------------------------|------------------------|    -|------------------------|
A|------------------------|------------------------|    -|------------------------|
E|------------------------|------------------------|    -|------------------------|
|                                                 |
|(Guitar 2)                                       |
e|------------------------|------------------------|
B|-7--5-----9--7----------|7--5-----9--7-----------|
G|-6--6-----9--8----------|6--6-----9--8-----------|
D|-7--7-----9--9----------|7--7-----9--9-----------|
A|------------------------|------------------------|
E|------------------------|------------------------|

[Play 3 times]
e|------------------------|------------------------||
B|------------------------|------------------------||
G|13-13-13-13-11-11-11-11-|9--9--9--9--8--8--8--8--||
D|14-14-14-14-13-13-13-13-|11-11-11-11-9--9--9--9--||
A|------------------------|------------------------||
E|------------------------|------------------------||
|                                                 ||
|                                                 ||
e|------------------------|------------------------||
B|------------------------|------------------------||
G|------------------------|------------------------||
D|-6--6--6--6--4--4--4--4-|2--2--2--2--1--1--1--1--||
A|-7--7--7--7--6--6--6--6-|4--4--4--4--2--2--2--2--||
E|------------------------|------------------------||


X     X     X     X     X     X     X     X
(Guitar 1)
e|-------12----12---------|------------------------|------------------------|
B|-12/(14)---------14--12-|12----------10--9----7--|5-----------------------|
G|------------------------|------------------------|------------------------|
D|------------------------|------------------------|------------------------|
A|------------------------|------------------------|------------------------|
E|------------------------|------------------------|------------------------|
|                                                 |
|(Guitar 2)                                       |
e|------------------------|------------------------|------------------------|
B|-7--5-----9--7----------|7--5-----9--7-----------|------------------------|
G|-6--6-----9--8----------|6--6-----9--8-----------|------------------------|
D|-7--7-----9--9----------|7--7-----9--9-----------|6-----------------------|
A|------------------------|------------------------|7-----------------------|
E|------------------------|------------------------|------------------------|

END

-----------------------------------------------------------------------------------

Legend:

X - Denotes the beat
/ - Slide up
 - Slide down
b - Bend
TP - Tremelo pick

[*****]
e||-----             -----||
B||-----             -----||
G||-----             -----||
D||----- REPEAT PART -----||
A||-----             -----||
E||-----             -----||

***** Number of times to repeat part listed here. Repeat twice if not shown

+--------------------------------------------------------------------------+
| or research.                                                             |
+--------------------------------------------------------------------------+

LiveInternet