AllChordsTabs.com

J-rocks - Meraih Mimpi (Third Version) Chords and Tabs


Artists:
Chords and Tabs » J » J-rocks - Meraih Mimpi (Third Version)

J-rocks - Meraih Mimpi (Third Version)

J-rocks - Meraih Mimpi (Third Version) Chords / Tabs

J-rocks - Meraih Mimpi Third Version: chords and tabs for the song. Watch chords and tablatures for all songs of the singer (group) J-rocks. Other chords and tabs for the "Meraih Mimpi" can find at the bottom of the page.

Meraih Mimpi By J-rocks

Iman : Lead 1
Sony : Lead 2

Lead 1

T  T  T  T  T T T T    E  E  E  E  E   E   E  E
E||-----------------------|----------------------------|
B||-----------------------|----------------------------|
G||-----------------------|----------------------------|
D||-----------------------|--------------5b--5b--------|
A||--14-13-12-11-10-9-8-7-|--------7-------------7--6--|
E||--12-11-10--9--8-7-6-5-|--5--5-----5----------------|


E  E  E  E  E  E  E  E     E  E  E  E  E   E   E  E
--------------------------|----------------------------|
--------------------------|----------------------------|
--------------------------|----------------------------|
--------7-----------5-----|--------------5b--5b--------|
--5--5-----5--3--3--------|--------7-------------7--6--|
-----------------------3--|--5--5-----5----------------|


E  E  E  E  E  E  E  E     E  E  E  E  E   E   E  E
--------------------------|----------------------------|
--------------------------|----------------------------|
--------------------------|----------------------------|
--------7-----------5-----|--------------5b--5b--------|
--5--5-----5--3--3--------|--------7-------------7--6--|
-----------------------3--|--5--5-----5----------------|


Lead 2

E   E   E   E   E   E   E   E
----------15------15--17----------|
--------------------------17--16--|
--14--14------14------------------|
----------------------------------|
----------------------------------|
----------------------------------|


Lead 1

E  E  E  E  E  E  E  E     E  E  E  E  E   E   E  E
--------------------------|----------------------------|
--------------------------|----------------------------|
--------------------------|----------------------------|
--------7-----------5-----|--------------5b--5b--------|
--5--5-----5--3--3--------|--------7-------------7--6--|
-----------------------3--|--5--5-----5----------------|

Lead 2

E   E   E   E   E   E   E   E      E   E   E   E   E   E   E   E
----------17--------------15------|----------15------15--17----------|
--15--15------15--13--13----------|--------------------------17--16--|
------------------------------12--|--14--14------14------------------|
----------------------------------|----------------------------------|
----------------------------------|----------------------------------|
----------------------------------|----------------------------------|

Lead 1

E  E  E  E  E  E  E  E     E  E  E  E  E   E   E  E
--------------------------|----------------------------|
--------------------------|----------------------------|
--------------------------|----------------------------|
--------7-----------5-----|--------------5b--5b--------|
--5--5-----5--3--3--------|--------7-------------7--6--|
-----------------------3--|--5--5-----5----------------|

Lead 2

E   E   E   E   E   E   E   E      E   E   E   E   E   E   E   E
----------17--------------15------|----------15------15--17----------|
--15--15------15--13--13----------|--------------------------17--16--|
------------------------------12--|--14--14------14------------------|
----------------------------------|----------------------------------|
----------------------------------|----------------------------------|
----------------------------------|----------------------------------|

Lead 1

E  E  E  E  E  E  E  E     E  E  E  E  E   E   E  E
--------------------------|----------------------------|
--------------------------|----------------------------|
--------------------------|----------------------------|
--------7-----------5-----|--------------5b--5b--------|
--5--5-----5--3--3--------|--------7-------------7--6--|
-----------------------3--|--5--5-----5----------------|

Lead 2

E   E   E   E   E   E   E   E      E   E   E   E   E   E   E   E
----------17--------------15------|----------15------15--17----------|
--15--15------15--13--13----------|--------------------------17--16--|
------------------------------12--|--14--14------14------------------|
----------------------------------|----------------------------------|
----------------------------------|----------------------------------|
----------------------------------|----------------------------------|

Lead 1

E  E  E  E  E  E  E  E     E  E  E  E  E   E   E  E
--------------------------|----------------------------|
--------------------------|----------------------------|
--------------------------|----------------------------|
--------7-----------5-----|--------------5b--5b--------|
--5--5-----5--3--3--------|--------7-------------7--6--|
-----------------------3--|--5--5-----5----------------|

Lead 2

E   E   E   E   E   E   E   E      E   E   E   E   E   E   E   E
----------17--------------15------|----------15------15--17----------|
--15--15------15--13--13----------|--------------------------17--16--|
------------------------------12--|--14--14------14------------------|
----------------------------------|----------------------------------|
----------------------------------|----------------------------------|
----------------------------------|----------------------------------|

Lead 1
PM PM      PM PM         PM PM      PM PM
E  E  E  E  E  E  E  E     E  E  Q    E  E  Q       E  E  Q    E  E  Q
--------------------------|------------------------|------------------------|
--------------------------|------------------------|------------------------|
--------------------------|------------------------|------------------------|
--------7-----------5-----|--2--2--2----2--2--2----|--2--2--2----2--2--2----|
--5--5-----5--3--3--------|--2--2--2----2--2--2----|--2--2--2----2--2--2----|
-----------------------3--|--0--0--0----0--0--0----|--0--0--0----0--0--0----|

Lead 2

E   E   E   E   E   E   E   E
----------17--------------15------|--------Stop--------|
--15--15------15--13--13----------|
------------------------------12--|
----------------------------------|
----------------------------------|
----------------------------------|


E  E  E  E  E  E  E  E     E  E  E  E  E  E  E  E
--------------------------|--------------------------|
--------------------------|--------------------------|
--------------------------|--------------------------|
--------------------------|--------------------------|
--7--7--7--7--7--7--7--7--|--4--4--4--4--4--4--4--4--|
--5--5--5--5--5--5--5--5--|--2--2--2--2--2--2--2--2--|


E  E  E  E  E  E  E  E     E  E  E  E  E  E  E  E
--------------------------|--------------------------|
--------------------------|--------------------------|
--------------------------|--------------------------|
--4--4--4--4--4--4--4--4--|--------------------------|
--2--2--2--2--2--2--2--2--|--2--2--2--2--2--2--4--2--|
--------------------------|--0--0--0--0--0--0--2--0--|


E  E  E  E  E  E  E  E     E  E  E  E  E  E  E  E
--------------------------|--------------------------|
--------------------------|--------------------------|
--------------------------|--------------------------|
--------------------------|--------------------------|
--7--7--7--7--7--7--7--7--|--4--4--4--4--4--4--4--4--|
--5--5--5--5--5--5--5--5--|--2--2--2--2--2--2--2--2--|


E  E  E  E  E  E  E  E     E  E  E  E  E  E  E  E
--------------------------|--------------------------|
--------------------------|--------------------------|
--------------------------|--------------------------|
--4--4--4--4--4--4--4--4--|--------------------------|
--2--2--2--2--2--2--2--2--|--2--2--2--2--2--2--4--2--|
--------------------------|--0--0--0--0--0--0--2--0--|


PM PM PM PM PM PM PM PM    PM PM PM PM PM PM PM PM
E  E  E  E  E  E  E  E     E  E  E  E  E  E  E  E
--------------------------|--------------------------|
--------------------------|--------------------------|
--------------------------|--------------------------|
--7--7--7--7--7--7--7--7--|--7--7--7--7--7--7--7--7--|
--5--5--5--5--5--5--5--5--|--5--5--5--5--5--5--5--5--|
--------------------------|--------------------------|


PM PM PM PM PM PM PM PM    PM PM PM PM PM PM PM PM
E  E  E  E  E  E  E  E     E  E  E  E  E  E  E  E
--------------------------|--------------------------|
--------------------------|--------------------------|
--------------------------|--------------------------|
--------------------------|--------------------------|
--7--7--7--7--7--7--7--7--|--7--7--7--7--7--7--7--7--|
--5--5--5--5--5--5--5--5--|--5--5--5--5--5--5--5--5--|


PM PM PM PM PM PM PM PM    PM PM PM PM PM PM PM PM
E  E  E  E  E  E  E  E     E  E  E  E  E  E  E  E
--------------------------|--------------------------|
--------------------------|--------------------------|
--------------------------|--------------------------|
--7--7--7--7--7--7--7--7--|--7--7--7--7--7--7--7--7--|
--5--5--5--5--5--5--5--5--|--5--5--5--5--5--5--5--5--|
--------------------------|--------------------------|


PM PM PM PM PM PM PM PM
E  E  E  E  E  E  E  E     S S S S S S S S S S S S S S S S
--------------------------|----------------------------------|
--------------------------|----------------------------------|
--------------------------|--9-9-9-9-9---9-9-9-9-9---9-9-9-9-|
--9--9--9--9--9--9--9--9--|--9-9-9-9-9---9-9-9-9-9---9-9-9-9-|
--7--7--7--7--7--7--7--7--|--7-7-7-7-7---7-7-7-7-7---7-7-7-7-|
--------------------------|----------------------------------|


E  E  E  E  E  E  E  E     E  E  E  E  E  E  E  E     E  E  Q    E  E  E  E
--------------------------|--------------------------|-------------------------|
--------------------------|--------------------------|-------------------------|
--------------------------|--------------------------|--x--x--4----4--4--4--4--|
--7--7--7--7--7--7--7--7--|--4--4--4--4--4--4--4--4--|--x--x--4----4--4--4--4--|
--7--7--7--7--7--7--7--7--|--4--4--4--4--4--4--4--4--|--x--x--2----2--2--2--2--|
--5--5--5--5--5--5--5--5--|--2--2--2--2--2--2--2--2--|-------------------------|


E  E  E  E  E  E  E  E     E  E  E  E  E  E  E  E
--------------------------|--------------------------|
--------------------------|--------------------------|
--------------------------|--------------------------|
--2--2--2--2--2--2--4--2--|--7--7--7--7--7--7--7--7--|
--2--2--2--2--2--2--4--2--|--7--7--7--7--7--7--7--7--|
--0--0--0--0--0--0--2--0--|--5--5--5--5--5--5--5--5--|


E  E  E  E  E  E  E  E     E  E  Q    E  E  E  E
--------------------------|-------------------------|
--------------------------|-------------------------|
--------------------------|--x--x--4----4--4--4--4--|
--4--4--4--4--4--4--4--4--|--x--x--4----4--4--4--4--|
--4--4--4--4--4--4--4--4--|--x--x--2----2--2--2--2--|
--2--2--2--2--2--2--2--2--|-------------------------|


S S S S S S S S S S S S S S S S    Q    E  Q    E  Q       W
----------------------------------|-----------------------|-------------------|
----------------------------------|-----------------------|-------------------|
--9---9-9-9-9-9---9-9-9---9-9-9-9-|-------x-------x-------|-------------------|
--9---9-9-9-9-9---9-9-9---9-9-9-9-|--5----x--5----x--5----|--L----------------|
--7---7-7-7-7-7---7-7-7---7-7-7-7-|--5----x--5----x--5----|--L----------------|
----------------------------------|--3----x--3----x--3----|--L----------------|


E  E  E  E  E  E  E  E     E  E  E  E  E  E  E  E
--------------------------|--------------------------|
--------------------------|--------------------------|
--------------------------|--------------------------|
--------------------------|--------------------------|
--7--7--7--7--7--7--7--7--|--4--4--4--4--4--4--4--4--|
--5--5--5--5--5--5--5--5--|--2--2--2--2--2--2--2--2--|


E  E  E  E  E  E  E  E     E  E  E  E  E  E  E  E
--------------------------|--------------------------|
--------------------------|--------------------------|
--------------------------|--------------------------|
--4--4--4--4--4--4--4--4--|--------------------------|
--2--2--2--2--2--2--2--2--|--2--2--2--2--2--2--4--2--|
--------------------------|--0--0--0--0--0--0--2--0--|


E  E  E  E  E  E  E  E     E  E  E  E  E  E  E  E
--------------------------|--------------------------|
--------------------------|--------------------------|
--------------------------|--------------------------|
--------------------------|--------------------------|
--7--7--7--7--7--7--7--7--|--4--4--4--4--4--4--4--4--|
--5--5--5--5--5--5--5--5--|--2--2--2--2--2--2--2--2--|


E  E  E  E  E  E  E  E     E  E  E  E  E  E  E  E
--------------------------|--------------------------|
--------------------------|--------------------------|
--------------------------|--------------------------|
--4--4--4--4--4--4--4--4--|--------------------------|
--2--2--2--2--2--2--2--2--|--2--2--2--2--2--2--4--2--|
--------------------------|--0--0--0--0--0--0--2--0--|


E  E  E  E  E  E  E  E     E  E  E  E  E  E  E  E
--------------------------|--------------------------|
--------------------------|--------------------------|
--7--7--7--7--7--x--x--x--|--7--7--7--7--7--x--x--x--|
--7--7--7--7--7--x--x--x--|--7--7--7--7--7--x--x--x--|
--5--5--5--5--5--x--x--x--|--5--5--5--5--5--x--x--x--|
--------------------------|--------------------------|


E  E  E  E  E  E  E  E     E  E  E  E  E  E  E  E
--------------------------|--------------------------|
--------------------------|--------------------------|
--6--6--6--6--6--x--x--x--|--6--6--6--6--6--x--x--x--|
--7--7--7--7--7--x--x--x--|--7--7--7--7--7--x--x--x--|
--7--7--7--7--7--x--x--x--|--7--7--7--7--7--x--x--x--|
--5--5--5--5--5-----------|--5--5--5--5--5-----------|


E  E  E  E  E  E  E  E     E  E  E  E  E  E  E  E
--------------------------|--------------------------|
--------------------------|--------------------------|
--7--7--7--7--7--x--x--x--|--7--7--7--7--7--x--x--x--|
--7--7--7--7--7--x--x--x--|--7--7--7--7--7--x--x--x--|
--5--5--5--5--5--x--x--x--|--5--5--5--5--5--x--x--x--|
--------------------------|--------------------------|


E  E  E  E  E  E  E  E     S S S S S S S S S S S S S S S S
--------------------------|----x-------x-------x-------------|
--------------------------|----x-------x-------x-------------|
--9--9--9--9--9--9--9--9--|--9-x-9-9-9-x-9-9-9-x-9-9-9-9-9-9-|
--9--9--9--9--9--9--9--9--|--9-x-9-9-9-x-9-9-9-x-9-9-9-9-9-9-|
--7--7--7--7--7--7--7--7--|--7-x-7-7-7-x-7-7-7-x-7-7-7-7-7-7-|
--------------------------|----------------------------------|


E  E  E  E  E  E  E  E     E  E  E  E  E  E  E  E     E  E  Q    E  E  E  E
--------------------------|--------------------------|-------------------------|
--------------------------|--------------------------|-------------------------|
--------------------------|--------------------------|--x--x--4----4--4--4--4--|
--7--7--7--7--7--7--7--7--|--4--4--4--4--4--4--4--4--|--x--x--4----4--4--4--4--|
--7--7--7--7--7--7--7--7--|--4--4--4--4--4--4--4--4--|--x--x--2----2--2--2--2--|
--5--5--5--5--5--5--5--5--|--2--2--2--2--2--2--2--2--|-------------------------|


E  E  E  E  E  E  E  E     E  E  E  E  E  E  E  E
--------------------------|--------------------------|
--------------------------|--------------------------|
--------------------------|--------------------------|
--2--2--2--2--2--2--2--2--|--7--7--7--7--7--7--7--7--|
--2--2--2--2--2--2--2--2--|--7--7--7--7--7--7--7--7--|
--0--0--0--0--0--0--0--0--|--5--5--5--5--5--5--5--5--|


E  E  E  E  E  E  E  E     E  E  Q    E  E  E  E
--------------------------|-------------------------|
--------------------------|-------------------------|
--------------------------|--x--x--4----4--4--4--4--|
--4--4--4--4--4--4--4--4--|--x--x--4----4--4--4--4--|
--4--4--4--4--4--4--4--4--|--x--x--2----2--2--2--2--|
--2--2--2--2--2--2--2--2--|-------------------------|


S S S S S S S S S S S S S S S S    W                   W
----------------------------------|-------------------|-------------------|
----------------------------------|-------------------|-------------------|
--9---9-9-9-9-9---9-9-9---9-9-9-9-|--4----------------|--4----------------|
--9---9-9-9-9-9---9-9-9---9-9-9-9-|--5----------------|--5----------------|
--7---7-7-7-7-7---7-7-7---7-7-7-7-|--5----------------|--5----------------|
----------------------------------|--3----------------|--3----------------|


W                   W                   W                   W
-------------------|-------------------|-------------------|-------------------|
-------------------|-------------------|-------------------|-------------------|
--2----------------|--2----------------|--4----------------|--4----------------|
--3----------------|--3----------------|--5----------------|--5----------------|
--3----------------|--3----------------|--5----------------|--5----------------|
--1----------------|--1----------------|--3----------------|--3----------------|


PM PM
W                   H        Q.     S  S     W
-------------------|------------------------|-------------------|
-------------------|------------------------|--7----------------|
--6----------------|--6--------L------7--7--|--7----------------|
--7----------------|--7--------L------7--7--|--7----------------|
--7----------------|--7--------L------5--5--|--5----------------|
--5----------------|--5--------L------------|-------------------|


PM PM                                        PM PM
H        Q.     S  S     W                   H        Q.     S  S
------------------------|-------------------|------------------------|
--L--------L------------|-------------------|------------------------|
--L--------L------7--7--|--6----------------|--L--------L------------|
--L--------L------7--7--|--7----------------|--L--------L------7--7--|
--L--------L------5--5--|--7----------------|--L--------L------7--7--|
------------------------|--5----------------|--L--------L------5--5--|


PM PM
W                   H        Q.     S  S     W
-------------------|------------------------|-------------------|
--7----------------|--L--------L------------|-------------------|
--7----------------|--L--------L------7--7--|--6----------------|
--7----------------|--L--------L------7--7--|--7----------------|
--5----------------|--L--------L------5--5--|--7----------------|
-------------------|------------------------|--5----------------|

Solo

S  S  S  S  E   S  S  S  S  E   S  S  E
--------------17--------------17--------17--|
--------------------------------------------|
--14-14-14-14-----14-14-14-14-----14-14-----|
--------------------------------------------|
--------------------------------------------|
--------------------------------------------|

S S S S S S S S S S S S S S S S
--9-5-5-9-5-5-7-5-9-5-5-9-5-5-7-5-|
----------------------------------|
--9---9---9---9---9---9---9---9---|
----------------------------------|
----------------------------------|
----------------------------------|


S S S S S S S S S S S S S S S S    S S S S S S S S S S S S S S S S
--9-5-5-9-5-5-7-5-9-5-5-9-5-5-7-5-|--9-5-5-9-5-5-7-5-9-5-5-9-5-5-7-5-|
----------------------------------|----------------------------------|
--9---9---9---9---9---9---9---9---|--9---9---9---9---9---9---9---9---|
----------------------------------|----------------------------------|
----------------------------------|----------------------------------|
----------------------------------|----------------------------------|


S S S S S S S S S S S S S S S S     S S S  S S S S S  S S S  S S S S S
--9-5-5-9-5-5-7-5-9-5-5-9-5-5-7-5-|--10-7-7-10-7-7-9-7-10-7-7-10-7-7-9-7-|
----------------------------------|--------------------------------------|
--9---9---9---9---9---9---9---9---|---9---9----9---9----9---9----9---9---|
----------------------------------|--------------------------------------|
----------------------------------|--------------------------------------|
----------------------------------|--------------------------------------|


S S S  S S S  S S  S S S  S S S  S S
--12-9-9-12-9-9-10-9-12-9-9-12-9-9-10-9-|
----------------------------------------|
--9----9----9----9---9----9----9----9---|
----------------------------------------|
----------------------------------------|
----------------------------------------|


S  S  S  S  S  S  S  S  S  S  S  S  S  S  S  S
--14-10-10-14-10-10-12-10-14-10-10-14-10-10-12-10-|
--------------------------------------------------|
---9-----9-----9-----9-----9-----9-----9-----9----|
--------------------------------------------------|
--------------------------------------------------|
--------------------------------------------------|


S S S  S S S  S S  S S S  S S S S S    S E  E  E  E  E  E  E  E
--12-9-9-12-9-9-10-9-10-7-7-10-7-7-9-7-|--5----L--L--L--L--L--L--L--|
---------------------------------------|----------------------------|
---9---9----9----9----9---9----9---9---|--9-------------------------|
---------------------------------------|----7--7--7--7--7--7--7--7--|
---------------------------------------|----7--7--7--7--7--7--7--7--|
---------------------------------------|----5--5--5--5--5--5--5--5--|


E  E  E  E  E  E  E  E     E  E  E  E  E  E  E  E
--------------------------|--------------------------|
--------------------------|--------------------------|
--------------------------|--4--4--4--4--4--4--4--4--|
--4--4--4--4--4--4--4--4--|--4--4--4--4--4--4--4--4--|
--4--4--4--4--4--4--4--4--|--2--2--2--2--2--2--2--2--|
--2--2--2--2--2--2--2--2--|--------------------------|


E  E  E  E  E  E  E  E     E  E  E  E  E  E  E  E
--------------------------|--------------------------|
--------------------------|--------------------------|
--------------------------|--------------------------|
--2--2--2--2--2--2--2--2--|--7--7--7--7--7--7--7--7--|
--2--2--2--2--2--2--2--2--|--7--7--7--7--7--7--7--7--|
--0--0--0--0--0--0--0--0--|--5--5--5--5--5--5--5--5--|


E  E  E  E  E  E  E  E     E  E  E  E  E  E  E  E
--------------------------|--------------------------|
--------------------------|--------------------------|
--------------------------|--4--4--4--4--4--4--4--4--|
--4--4--4--4--4--4--4--4--|--4--4--4--4--4--4--4--4--|
--4--4--4--4--4--4--4--4--|--2--2--2--2--2--2--2--2--|
--2--2--2--2--2--2--2--2--|--------------------------|


S S S S S S S S S S S S S S S S    E  E  E  E  E  E  E  E
----------------------------------|--------------------------|
----------------------------------|--------------------------|
--9-9-9-9-9---9-9-9-9-9---9-9-9-9-|--------------------------|
--9-9-9-9-9---9-9-9-9-9---9-9-9-9-|--7--7--7--7--7--7--7--7--|
--7-7-7-7-7---7-7-7-7-7---7-7-7-7-|--7--7--7--7--7--7--7--7--|
----------------------------------|--5--5--5--5--5--5--5--5--|


E  E  E  E  E  E  E  E     E  E  E  E  E  E  E  E
--------------------------|--------------------------|
--------------------------|--------------------------|
--------------------------|--4--4--4--4--4--4--4--4--|
--4--4--4--4--4--4--4--4--|--4--4--4--4--4--4--4--4--|
--4--4--4--4--4--4--4--4--|--2--2--2--2--2--2--2--2--|
--2--2--2--2--2--2--2--2--|--------------------------|


E  E  E  E  E  E  E  E     E  E  E  E  E  E  E  E
--------------------------|--------------------------|
--------------------------|--------------------------|
--------------------------|--------------------------|
--2--2--2--2--2--2--2--2--|--7--7--7--7--7--7--7--7--|
--2--2--2--2--2--2--2--2--|--7--7--7--7--7--7--7--7--|
--0--0--0--0--0--0--0--0--|--5--5--5--5--5--5--5--5--|


E  E  E  E  E  E  E  E     E  E  E  E  E  E  E  E
--------------------------|--------------------------|
--------------------------|--------------------------|
--------------------------|--4--4--4--4--4--4--4--4--|
--4--4--4--4--4--4--4--4--|--4--4--4--4--4--4--4--4--|
--4--4--4--4--4--4--4--4--|--2--2--2--2--2--2--2--2--|
--2--2--2--2--2--2--2--2--|--------------------------|


S S S S S S S S S S S S S S S S    E  E  E  E  E   E   E  E
----------------------------------|----------------------------|
----------------------------------|----------------------------|
--9-9-9-9-9---9-9-9-9-9---9-9-9-9-|----------------------------|
--9-9-9-9-9---9-9-9-9-9---9-9-9-9-|--------------5b--5b--------|
--7-7-7-7-7---7-7-7-7-7---7-7-7-7-|--------7-------------7--6--|
----------------------------------|--5--5-----5----------------|


Lead 2
E   E   E   E   E   E   E   E
|---------------------------------|----------15------15--17----------|
|---------------------------------|--------------------------17--16--|
|---------------------------------|--14--14------14------------------|
|---------------------------------|----------------------------------|
|---------------------------------|----------------------------------|
|---------------------------------|----------------------------------|

Lead 1

E  E  E  E  E  E  E  E     E  E  E  E  E   E   E  E
--------------------------|----------------------------|
--------------------------|----------------------------|
--------------------------|----------------------------|
--------7-----------5-----|--------------5b--5b--------|
--5--5-----5--3--3--------|--------7-------------7--6--|
-----------------------3--|--5--5-----5----------------|

Lead 2

E   E   E   E   E   E   E   E      E   E   E   E   E   E   E   E
----------17--------------15------|----------15------15--17----------|
--15--15------15--13--13----------|--------------------------17--16--|
------------------------------12--|--14--14------14------------------|
----------------------------------|----------------------------------|
----------------------------------|----------------------------------|
----------------------------------|----------------------------------|

Lead 1

E  E  E  E  E  E  E  E     E  E  E  E  E   E   E  E
--------------------------|----------------------------|
--------------------------|----------------------------|
--------------------------|----------------------------|
--------7-----------5-----|--------------5b--5b--------|
--5--5-----5--3--3--------|--------7-------------7--6--|
-----------------------3--|--5--5-----5----------------|

Lead 2

E   E   E   E   E   E   E   E      E   E   E   E   E   E   E   E
----------17--------------15------|----------15------15--17----------|
--15--15------15--13--13----------|--------------------------17--16--|
------------------------------12--|--14--14------14------------------|
----------------------------------|----------------------------------|
----------------------------------|----------------------------------|
----------------------------------|----------------------------------|

Lead 1

E  E  E  E  E  E  E  E     E  E  E  E  E   E   E  E
--------------------------|----------------------------|
--------------------------|----------------------------|
--------------------------|----------------------------|
--------7-----------5-----|--------------5b--5b--------|
--5--5-----5--3--3--------|--------7-------------7--6--|
-----------------------3--|--5--5-----5----------------|

Lead 2

E   E   E   E   E   E   E   E      E   E   E   E   E   E   E   E
----------17--------------15------|----------15------15--17----------|
--15--15------15--13--13----------|--------------------------17--16--|
------------------------------12--|--14--14------14------------------|
----------------------------------|----------------------------------|
----------------------------------|----------------------------------|
----------------------------------|----------------------------------|

Lead 1

E  E  E  E  E  E  E  E     E  E  H.              W
--------------------------|---------------------|-------------------||
--------------------------|--x--x---------------|-------------------||
--------------------------|--x--x--6------------|--L----------------||
--------7-----------5-----|--x--x--7------------|--L----------------||
--5--5-----5--3--3--------|--x--x--7------------|--L----------------||
-----------------------3--|--------5------------|--L----------------||

Lead 2

E   E   E   E   E   E   E   E     E  E  H.              W
----------17----------------------|---------------------|-------------------||
--15--15------15--13--13--15--13--|--x--x---------------|-------------------||
----------------------------------|--x--x--6------------|--L----------------||
----------------------------------|--x--x--7------------|--L----------------||
----------------------------------|--x--x--7------------|--L----------------||
----------------------------------|--------5------------|--L----------------||



Duration Legend
---------------
W - whole
H - half
Q - quarter
E - 8th
S - 16th
T - 32nd
X - 64th
. - note dotted
|-n-|  - n-tuplets


Tablature Legend
----------------
L - tied note
x - dead note
g - grace note
(n) - ghost note
> - accentuded note
NH - natural harmonic
AH - artificial harmonic
TH - tapped harmonic
SH - semi harmonic
PH - pitch harmonic
h - hammer on
p - pull off
b - bend
br - bendRelease
pb - preBend
pbr - preBendRelease
brb - bendReleaseBend

/ - tremolo bar dip

 - tremolo bar dive
-/n - tremolo bar Release up
/n - tremolo bar inverted dip
/n - tremolo bar return
-
 - tremolo bar Release down
S - shift slide
s - legato slide
/ -  slide into from below or out of upwards
 -  slide into from above or out of downwards
~ - vibrato
W - wide vibrato
tr - trill
TP - tremolo picking
T - tapping
S - slap
P - pop
< - fade in
^ - brush up
v - brush down

LiveInternet