AllChordsTabs.com

Lincoln Brewster - Oxygen (First Version) Chords and Tabs


Artists:
Chords and Tabs » L » Lincoln Brewster - Oxygen (First Version)

Lincoln Brewster - Oxygen (First Version)

Lincoln Brewster - Oxygen (First Version) Chords / Tabs

Lincoln Brewster - Oxygen First Version: chords and tabs for the song. Watch chords and tablatures for all songs of the singer (group) Lincoln Brewster. Other chords and tabs for the "Oxygen " can find at the bottom of the page.

E  E  E  E  E  E  E  E     E  E  E  E  E  E  E  E
E||--------------------------|--------------------------||
B||--------------------------|--------------------------||
G||--4--4--4--4--4--2--2--6--|--6--6--6--7--7--6--6--6--||
D||--5--5--5--5--5--4--4--7--|--7--7--7--9--9--7--7--7--||
A||--------------------------|--------------------------||
E||--------------------------|--------------------------||


E  E  E  E  E  E  E  E     E  E  E  E  E  E  E  E
E||--------------------------|--------------------------||
B||--------------------------|--------------------------||
G||--4--4--4--4--4--2--2--6--|--6--6--6--7--7--6--6--6--||
D||--5--5--5--5--5--4--4--7--|--7--7--7--9--9--7--7--7--||
A||--------------------------|--------------------------||
E||--------------------------|--------------------------||

LiveInternet