AllChordsTabs.com

Feist - One Evening (First Version) Chords and Tabs


Artists:
Chords and Tabs » F » Feist - One Evening (First Version)

Feist - One Evening (First Version)

Feist - One Evening (First Version) Chords / Tabs

Feist - One Evening First Version: chords and tabs for the song. Watch chords and tablatures for all songs of the singer (group) Feist. Other chords and tabs for the "One Evening" can find at the bottom of the page.

(Live)
-------------------------------------------------------------------------------
-------------------------------------------------------------------------------

*Please note that the live version is played a semi-tone lower than the studio version.

Tuning:Standard
Intro
e|------------------------------------------------------------------------------------------------|
B|------------------------------------------------------------------------------------------------|
G|------------------------------------------------------------------------------------------------|
D|----------------------------5-4------2~----2---2--22-5-4-----2~-2-5-4-----2~-2--2/3-0-----------|
A|22-5-4-0---2-2-5-4-0---2-2------5-2--2~--2---2-----------5-2-2~-------5-2-2~------------2~-----2|
E|---------2-----------2---------------0~-----------------------------------------------2----2-2--|

Verse(Pause)

Chorus
e|------------------------------------------------------|
B|------------------------------------------------------|
G|--2---2--2~---2---2--2-4~--4---4---4--4---4-4-3-2-----|
D|4---4----4~-4---4----4-5~--4-5---5---5--5-------------|
A|------------------------------------------------------|
E|------------------------------------------------------|

e|--------------------------------------|
B|--------------------------------------|
G|--2---2--2~---2---2--2-4~--4-2~-------|
D|4---4----4~-4---4----4-5~--4-4~-------|
A|--------------------------------------|
E|--------------------------------------|

Post Chorus x2
e|---------------------------------------------|
B|---------------------------------------------|
G|4-4--------7-7--------11-11/---14--14/-16~---|
D|x-x--------x-x--------x--x------x---x---x----|
A|2-2-xx4x4x-5-5-xx7x7x-9--9/----12--12/-14~---|
E|---------------------------------------------|

Verse(Pause)

Chorus

Solo
e|---------------------------------------------|
B|---------------------------------------------|
G|4-4--------7-7--------11-11/---14--14/-16~---|
D|x-x--------x-x--------x--x------x---x---x----|
A|2-2-xx4x4x-5-5-xx7x7x-9--9/----12--12/-14~---|
E|---------------------------------------------|

e|------------------------------------------------------------------------------------------------|
B|------------------------------------------------------------------------------------------------|
G|------------------------------------------------------------------------------------------------|
D|----------------------------5-4------2~----2---2--22-5-4-----2~-2-5-4-----2~-2--2/3-0-----------|
A|22-5-4-0---2-2-5-4-0---2-2------5-2--2~--2---2-----------5-2-2~-------5-2-2~------------2~-----2|
E|---------2-----------2---------------0~-----------------------------------------------2----2-2--|

Chorus x2

Pause

Outro
e|---------------------------------------------|
B|---------------------------------------------|
G|4-4--------7-7--------11-11/---14--14/-16~---|
D|x-x--------x-x--------x--x------x---x---x----|
A|2-2-xx4x4x-5-5-xx7x7x-9--9/----12--12/-14~---|
E|---------------------------------------------|

e|------------------------------------------------------------------------------------------------|
B|------------------------------------------------------------------------------------------------|
G|------------------------------------------------------------------------------------------------|
D|----------------------------5-4------2~----2---2--22-5-4-----2~-2-5-4-----2~-2--2/3-0-----------|
A|22-5-4-0---2-2-5-4-0---2-2------5-2--2~--2---2-----------5-2-2~-------5-2-2~------------2~-----2|
E|---------2-----------2---------------0~-----------------------------------------------2----2-2--|

LiveInternet