AllChordsTabs.com

Bullet For My Valentine - Over It (First Version) Chords and Tabs


Artists:
Chords and Tabs » B » Bullet For My Valentine - Over It (First Version)

Bullet For My Valentine - Over It (First Version)

Bullet For My Valentine - Over It (First Version) Chords / Tabs

Bullet For My Valentine - Over It First Version: chords and tabs for the song. Watch chords and tablatures for all songs of the singer (group) Bullet For My Valentine. Other chords and tabs for the "Over It" can find at the bottom of the page.

0:00
[Right guitar Intro]

(Guitar 1)

C#|---------------------------------|------------------------|
G#|---------------------------------|------------------------|
E |---------------------------------|------------------------|
B |---------------------------------|------------------------|
F#|---------------------------------|------------------------|
B |-0-0-0-8-0--0-0-0-8-0--0-0-0-8-0-|-0-7-8-8-10-12-12-12-12-|
>   >      >   >      >   >

C#|----------------------|-------------------------------------------|
G#|----------------------|-------------------------------------------|
E |----------------------|-------------------------------------------|
B |----------------------|-------------------------------------------|
F#|----------------------|-------------------------------------------|
B |-0-0-0-8-0--0-0-0-8-0-|-0-7-h8-0-8-h10-0-7-h8-0-8-h10-12-12-12-12-|
>   >      >   >

0:09
[All instruments come in]

(Guitar 1)
C#|---------------------------------|------------------------|
G#|---------------------------------|------------------------|
E |---------------------------------|------------------------|
B |-0-0-0---0--0-0-0---0--0-0-0---0-|-0----------------------|
F#|-0-0-0---0--0-0-0---0--0-0-0---0-|-0----------------------|
B |-0-0-0-8-0--0-0-0-8-0--0-0-0-8-0-|-0-7-8-8-10-12-12-12-12-|
>   >      >   >      >   >

C#|----------------------|-------------------------------------------|
G#|----------------------|-------------------------------------------|
E |----------------------|-------------------------------------------|
B |-0-0-0---0--0-0-0---0-|-0-----------------------------------------|
F#|-0-0-0---0--0-0-0---0-|-0-----------------------------------------|
B |-0-0-0-8-0--0-0-0-8-0-|-0-7-h8-0-8-h10-0-7-h8-0-8-h10-12-12-12-12-|
>   >      >   >


C#|-----------------------|------------------------------------|
G#|-----------------------|------------------------------------|
E |-----------------------|------------------------------------|
B |-0-0-0-0-0-0-0-0-0-0-0-|-0-0-0-0-0-0------------12-12-12-12-|
F#|-0-0-0-0-0-0-0-0-0-0-0-|0-0-0-0-0-0------------12-12-12-12-|
F#|-0-0-0-0-0-0-0-0-0-0-0-|-0-0-0-0-0-0------------12-12-12-12-|
x > x x > x x > x x > x x > x x > x x x x x

C#|----------------------|-------------------------------------------|
G#|----------------------|-------------------------------------------|
E |----------------------|-------------------------------------------|
B |-0-0-0---0--0-0-0---0-|-0-----------------------------------------|
F#|-0-0-0---0--0-0-0---0-|-0-----------------------------------------|
B |-0-0-0-8-0--0-0-0-8-0-|-0-7-h8-0-8-h10-0-7-h8-0-8-h10-12-12-12-12-|
>   >      >   >


(Guitar 2 w/ delay)
C#|---------------------------------|-------------------------------|
G#|---------------------------------|-------------------------------|
E |-p10-7-7-7-p10-7-7-7-p10-7-p10-7-|-p10-7-7-7-p10-7-7-7-p9-7-p9-7-| Play x4
B |---------------------------------|-------------------------------|
F#|---------------------------------|-------------------------------|
B |---------------------------------|-------------------------------|


0:29
[Verse 1]

(Guitar 2 clean w/ delay)

C#|---------------------------------|-------------------------------|
G#|---------------------------------|-------------------------------|
E |-p10-7-7-7-p10-7-7-7-p10-7-p10-7-|-p10-7-7-7-p10-7-7-7-p9-7-p9-7-| Play x2
B |---------------------------------|-------------------------------|
F#|---------------------------------|-------------------------------|
B |---------------------------------|-------------------------------|


0:39
[Guitar 1 says hello]

(Guitar 1)
C#|---------------------------------|------------------------|
G#|---------------------------------|------------------------|
E |---------------------------------|------------------------|
B |-0-0-0---0--0-0-0---0--0-0-0---0-|-0----------------------|
F#|-0-0-0---0--0-0-0---0--0-0-0---0-|-0----------------------|
B |-0-0-0-8-0--0-0-0-8-0--0-0-0-8-0-|-0-7-8-8-10-12-12-12-12-|
>   >      >   >      >   >

C#|----------------------|-------------------------------------------|
G#|----------------------|-------------------------------------------|
E |----------------------|-------------------------------------------|
B |-0-0-0---0--0-0-0---0-|-0-----------------------------------------|
F#|-0-0-0---0--0-0-0---0-|-0-----------------------------------------|
B |-0-0-0-8-0--0-0-0-8-0-|-0-7-h8-0-8-h10-0-7-h8-0-8-h10-12-12-12-12-|
>   >      >   >

(Guitar 2 w/ delay)
C#|---------------------------------|-------------------------------|
G#|---------------------------------|-------------------------------|
E |-p10-7-7-7-p10-7-7-7-p10-7-p10-7-|-p10-7-7-7-p10-7-7-7-p9-7-p9-7-| Play x2
B |---------------------------------|-------------------------------|
F#|---------------------------------|-------------------------------|
B |---------------------------------|-------------------------------|


0:49
[Guitar 1 goes away again]

(Guitar 2 clean w/ delay)
C#|---------------------------------|-------------------------------|
G#|---------------------------------|-------------------------------|
E |-p10-7-7-7-p10-7-7-7-p10-7-p10-7-|-p10-7-7-7-p10-7-7-7-p9-7-p9-7-| Play x2
B |---------------------------------|-------------------------------|
F#|---------------------------------|-------------------------------|
B |---------------------------------|-------------------------------|


0:59
[Chorus 1]

(Guitar 1)
C#|-----------------|-----------------|-------------------------|-----------------|
G#|-----------------|-----------------|-------------------------|-----------------|
E |-----------------|-----------------|-------------------------|-----------------|
B |-7-7-7-7-0-0-0-0-|-7-7-7-7-0-0-0-0-|-10-10-10-10-10-10-10-10-|-8-8-8-8-7-7-7-7-|
F#|-7-7-7-7-0-0-0-0-|-7-7-7-7-0-0-0-0-|-10-10-10-10-10-10-10-10-|-8-8-8-8-7-7-7-7-|
B |-7-7-7-7-0-0-0-0-|-7-7-7-7-0-0-0-0-|-10-10-10-10-10-10-10-10-|-8-8-8-8-7-7-7-7-|

C#|-----------------|-----------------|-----------------|-----------------|
G#|-----------------|-----------------|---------------- |-----------------|
E |-----------------|-----------------|---------------- |-----------------|
B |-7-7-7-7-0-0-0-0-|-7-7-7-7-0-0-0-0-|-5-5-5-5-5-5-5-5-|-3-3-3-3-2-2-2-2-|
F#|-7-7-7-7-0-0-0-0-|-7-7-7-7-0-0-0-0-|-5-5-5-5-5-5-5-5-|-3-3-3-3-2-2-2-2-|
B |-7-7-7-7-0-0-0-0-|-7-7-7-7-0-0-0-0-|-5-5-5-5-5-5-5-5-|-3-3-3-3-2-2-2-2-|

C#|-----------------|-----------------|-------------------------|-----------------|
G#|-----------------|-----------------|-------------------------|-----------------|
E |-----------------|-----------------|-------------------------|-----------------|
B |-7-7-7-7-0-0-0-0-|-7-7-7-7-0-0-0-0-|-10-10-10-10-10-10-10-10-|-8-8-8-8-7-7-7-7-|
F#|-7-7-7-7-0-0-0-0-|-7-7-7-7-0-0-0-0-|-10-10-10-10-10-10-10-10-|-8-8-8-8-7-7-7-7-|
B |-7-7-7-7-0-0-0-0-|-7-7-7-7-0-0-0-0-|-10-10-10-10-10-10-10-10-|-8-8-8-8-7-7-7-7-|

C#|-----------------|-----------------|-----------------|-----------------|
G#|-----------------|-----------------|-----------------|-----------------|
E |-----------------|-----------------|-----------------|-----------------|
B |-3-3-3-3-3-3-3-3-|-3-3-3-3-3-3-3-3-|-2-2-2-2-2-2-2-2-|-2-2-2-2-2-2-2-2-|
F#|-3-3-3-3-3-3-3-3-|-3-3-3-3-3-3-3-3-|-2-2-2-2-2-2-2-2-|-2-2-2-2-2-2-2-2-|
B |-3-3-3-3-3-3-3-3-|-3-3-3-3-3-3-3-3-|-2-2-2-2-2-2-2-2-|-2-2-2-2-2-2-2-2-|


(Guitar 2)
C#|-------------------------|-------------------------|-------------------------|-------------------------|
G#|-------------------------|-------------------------|-------------------------|-------------------------|
E |-14-14-14-14-14-14-14-14-|-14-14-14-14-14-14-14-14-|-17-17-17-17-17-17-17-17-|-12-12-12-12-12-12-12-12-|
B |-------------------------|-------------------------|-------------------------|-------------------------|
F#|-12-12-12-12-12-12-12-12-|-12-12-12-12-12-12-12-12-|-15-15-15-15-15-17-15-15-|-10-10-10-10-10-10-10-10-|
B |-------------------------|-------------------------|-------------------------|-------------------------|

C#|-------------------------|-------------------------|-------------------------|-----------------|
G#|-------------------------|-------------------------|-------------------------|-----------------|
E |-14-14-14-14-14-14-14-14-|-14-14-14-14-14-14-14-14-|-10-10-10-10-10-10-10-10-|-9-9-9-9-9-9-9-9-|
B |-------------------------|-------------------------|-------------------------|-----------------|
F#|-12-12-12-12-12-12-12-12-|-12-12-12-12-12-12-12-12-|-8--8--8--8--8--8--8--8--|-7-7-7-7-7-7-7-7-|
B |-------------------------|-------------------------|-------------------------|-----------------|

C#|-------------------------|-------------------------|-------------------------|-------------------------|
G#|-------------------------|-------------------------|-------------------------|-------------------------|
E |-14-14-14-14-14-14-14-14-|-14-14-14-14-14-14-14-14-|-17-17-17-17-17-17-17-17-|-12-12-12-12-12-12-12-12-|
B |-------------------------|-------------------------|-------------------------|-------------------------|
F#|-12-12-12-12-12-12-12-12-|-12-12-12-12-12-12-12-12-|-15-15-15-15-15-17-15-15-|-10-10-10-10-10-10-10-10-|
B |-------------------------|-------------------------|-------------------------|-------------------------|

C#|-------------------------|-------------------------|--------------------|--------------------|
G#|-------------------------|-------------------------|--------------------|--------------------|
E |-14-14-14-14-14-14-14-14-|-14-14-14-14-14-14-14-14-|-10-10-10-9-9-9-7-7-|-10-10-10-9-9-9-7-7-|
B |-------------------------|-------------------------|--------------------|--------------------|
F#|-12-12-12-12-12-12-12-12-|-12-12-12-12-12-12-12-12-|-8--8--8--7-7-7-5-5-|-8--8--8--7-7-7-5-5-|
B |-------------------------|-------------------------|--------------------|--------------------|


1:18
[Post Chorus]

(Guitar 1)
C#|---------------------------------|------------------------|
G#|---------------------------------|------------------------|
E |---------------------------------|------------------------|
B |-0-0-0---0--0-0-0---0--0-0-0---0-|-0----------------------|
F#|-0-0-0---0--0-0-0---0--0-0-0---0-|-0----------------------|
B |-0-0-0-8-0--0-0-0-8-0--0-0-0-8-0-|-0-7-8-8-10-12-12-12-12-|
>   >      >   >      >   >

C#|----------------------|-------------------------------------------|
G#|----------------------|-------------------------------------------|
E |----------------------|-------------------------------------------|
B |-0-0-0---0--0-0-0---0-|-0-----------------------------------------|
F#|-0-0-0---0--0-0-0---0-|-0-----------------------------------------|
B |-0-0-0-8-0--0-0-0-8-0-|-0-7-h8-0-8-h10-0-7-h8-0-8-h10-12-12-12-12-|
>   >      >   >


(Guitar 2 w/ delay)
C#|---------------------------------|-------------------------------|
G#|---------------------------------|-------------------------------|
E |-p10-7-7-7-p10-7-7-7-p10-7-p10-7-|-p10-7-7-7-p10-7-7-7-p9-7-p9-7-| Play x2
B |---------------------------------|-------------------------------|
F#|---------------------------------|-------------------------------|
B |---------------------------------|-------------------------------|

1:29
[Verse 2]

(Guitar 2 clean w/ delay)
C#|---------------------------------|-------------------------------|
G#|---------------------------------|-------------------------------|
E |-p10-7-7-7-p10-7-7-7-p10-7-p10-7-|-p10-7-7-7-p10-7-7-7-p9-7-p9-7-| Play x2
B |---------------------------------|-------------------------------|
F#|---------------------------------|-------------------------------|
B |---------------------------------|-------------------------------|


1:38
[Guitar 1 comes back for some meaty chugs]

(Guitar 1)      PM--------    PM--------    PM--------
C#|----------------------------------------------------|-----------------------|
G#|----------------------------------------------------|-----------------------|
E |----------------------------------------------------|-----------------------|
B |----------0-0-----------0-0-----------0-0-----------|-----------------------|
F#|----------0-0-----------0-0-----------0-0-----------|-----------------------|
B |----------0-0-0-0-0-0-0-0-0-0-0-0-0-0-0-0-0-0-0-0-0-|-10-8-7-10-12-12-12-12-|
Pickslide

C#|----------------------|-------------------------------------------|
G#|----------------------|-------------------------------------------|
E |----------------------|-------------------------------------------|
B |-0-0-0---0--0-0-0---0-|-0-----------------------------------------|
F#|-0-0-0---0--0-0-0---0-|-0-----------------------------------------|
B |-0-0-0-8-0--0-0-0-8-0-|-0-7-h8-0-8-h10-0-7-h8-0-8-h10-12-12-12-12-|
>   >      >   >

1:47
[Chorus 2]

(Guitar 1)
C#|-----------------|-----------------|-------------------------|-----------------|
G#|-----------------|-----------------|-------------------------|-----------------|
E |-----------------|-----------------|-------------------------|-----------------|
B |-7-7-7-7-0-0-0-0-|-7-7-7-7-0-0-0-0-|-10-10-10-10-10-10-10-10-|-8-8-8-8-7-7-7-7-|
F#|-7-7-7-7-0-0-0-0-|-7-7-7-7-0-0-0-0-|-10-10-10-10-10-10-10-10-|-8-8-8-8-7-7-7-7-|
B |-7-7-7-7-0-0-0-0-|-7-7-7-7-0-0-0-0-|-10-10-10-10-10-10-10-10-|-8-8-8-8-7-7-7-7-|

C#|-----------------|-----------------|-----------------|-----------------|
G#|-----------------|-----------------|---------------- |-----------------|
E |-----------------|-----------------|---------------- |-----------------|
B |-7-7-7-7-0-0-0-0-|-7-7-7-7-0-0-0-0-|-5-5-5-5-5-5-5-5-|-3-3-3-3-2-2-2-2-|
F#|-7-7-7-7-0-0-0-0-|-7-7-7-7-0-0-0-0-|-5-5-5-5-5-5-5-5-|-3-3-3-3-2-2-2-2-|
B |-7-7-7-7-0-0-0-0-|-7-7-7-7-0-0-0-0-|-5-5-5-5-5-5-5-5-|-3-3-3-3-2-2-2-2-|

C#|-----------------|-----------------|-------------------------|-----------------|
G#|-----------------|-----------------|-------------------------|-----------------|
E |-----------------|-----------------|-------------------------|-----------------|
B |-7-7-7-7-0-0-0-0-|-7-7-7-7-0-0-0-0-|-10-10-10-10-10-10-10-10-|-8-8-8-8-7-7-7-7-|
F#|-7-7-7-7-0-0-0-0-|-7-7-7-7-0-0-0-0-|-10-10-10-10-10-10-10-10-|-8-8-8-8-7-7-7-7-|
B |-7-7-7-7-0-0-0-0-|-7-7-7-7-0-0-0-0-|-10-10-10-10-10-10-10-10-|-8-8-8-8-7-7-7-7-|

C#|-----------------|-----------------|-----------------|-----------------|
G#|-----------------|-----------------|-----------------|-----------------|
E |-----------------|-----------------|-----------------|-----------------|
B |-3-3-3-3-3-3-3-3-|-3-3-3-3-3-3-3-3-|-2-2-2-2-2-2-2-2-|-2-2-2-2-2-2-2-2-|
F#|-3-3-3-3-3-3-3-3-|-3-3-3-3-3-3-3-3-|-2-2-2-2-2-2-2-2-|-2-2-2-2-2-2-2-2-|
B |-3-3-3-3-3-3-3-3-|-3-3-3-3-3-3-3-3-|-2-2-2-2-2-2-2-2-|-2-2-2-2-2-2-2-2-|


(Guitar 2)
C#|-------------------------|-------------------------|-------------------------|-------------------------|
G#|-------------------------|-------------------------|-------------------------|-------------------------|
E |-14-14-14-14-14-14-14-14-|-14-14-14-14-14-14-14-14-|-17-17-17-17-17-17-17-17-|-12-12-12-12-12-12-12-12-|
B |-------------------------|-------------------------|-------------------------|-------------------------|
F#|-12-12-12-12-12-12-12-12-|-12-12-12-12-12-12-12-12-|-15-15-15-15-15-17-15-15-|-10-10-10-10-10-10-10-10-|
B |-------------------------|-------------------------|-------------------------|-------------------------|

C#|-------------------------|-------------------------|-------------------------|-----------------|
G#|-------------------------|-------------------------|-------------------------|-----------------|
E |-14-14-14-14-14-14-14-14-|-14-14-14-14-14-14-14-14-|-10-10-10-10-10-10-10-10-|-9-9-9-9-9-9-9-9-|
B |-------------------------|-------------------------|-------------------------|-----------------|
F#|-12-12-12-12-12-12-12-12-|-12-12-12-12-12-12-12-12-|-8--8--8--8--8--8--8--8--|-7-7-7-7-7-7-7-7-|
B |-------------------------|-------------------------|-------------------------|-----------------|

C#|-------------------------|-------------------------|-------------------------|-------------------------|
G#|-------------------------|-------------------------|-------------------------|-------------------------|
E |-14-14-14-14-14-14-14-14-|-14-14-14-14-14-14-14-14-|-17-17-17-17-17-17-17-17-|-12-12-12-12-12-12-12-12-|
B |-------------------------|-------------------------|-------------------------|-------------------------|
F#|-12-12-12-12-12-12-12-12-|-12-12-12-12-12-12-12-12-|-15-15-15-15-15-17-15-15-|-10-10-10-10-10-10-10-10-|
B |-------------------------|-------------------------|-------------------------|-------------------------|

C#|-------------------------|-------------------------|--------------------|--------------------|
G#|-------------------------|-------------------------|--------------------|--------------------|
E |-14-14-14-14-14-14-14-14-|-14-14-14-14-14-14-14-14-|-10-10-10-9-9-9-7-7-|-10-10-10-9-9-9-7-7-|
B |-------------------------|-------------------------|--------------------|--------------------|
F#|-12-12-12-12-12-12-12-12-|-12-12-12-12-12-12-12-12-|-8--8--8--7-7-7-5-5-|-8--8--8--7-7-7-5-5-|
B |-------------------------|-------------------------|--------------------|--------------------|


2:08
[Bridge]

(Guitar 2 clean w/ delay)
C#|---------------------------------|-------------------------------|
G#|---------------------------------|-------------------------------|
E |-p10-7-7-7-p10-7-7-7-p10-7-p10-7-|-p10-7-7-7-p10-7-7-7-p9-7-p9-7-| Play x2
B |---------------------------------|-------------------------------|
F#|---------------------------------|-------------------------------|
B |---------------------------------|-------------------------------|


2:18
[Guitar 1 does some harmonic scr*pe stuff]

(Guitar 1)
C#|-----------------|
G#|-----------------|
E |-----------------| Play x4
B |-----------------|
F#|-----------------|
B |-3-3-3-3-3-3-3-3-|
+ + + + + + + +

2:29

(Guitar 1)
C#|-----------------|-------------------|
G#|-----------------|-------------------|
E |-----------------|-------------------| Play x3
B |-----------------|-------------------|
F#|-----------------|-------------------|
B |-0-0-7-7-8-8-7-7-|-10-10-7-7-8-7-8-7-|


2:38
[Final Chorus]

(Guitar 1) Play all this x2
C#|-----------------|-----------------|-------------------------|-----------------|
G#|-----------------|-----------------|-------------------------|-----------------|
E |-----------------|-----------------|-------------------------|-----------------|
B |-7-7-7-7-0-0-0-0-|-7-7-7-7-0-0-0-0-|-10-10-10-10-10-10-10-10-|-8-8-8-8-7-7-7-7-|
F#|-7-7-7-7-0-0-0-0-|-7-7-7-7-0-0-0-0-|-10-10-10-10-10-10-10-10-|-8-8-8-8-7-7-7-7-|
B |-7-7-7-7-0-0-0-0-|-7-7-7-7-0-0-0-0-|-10-10-10-10-10-10-10-10-|-8-8-8-8-7-7-7-7-|

C#|-----------------|-----------------|-----------------|-----------------|
G#|-----------------|-----------------|---------------- |-----------------|
E |-----------------|-----------------|---------------- |-----------------|
B |-7-7-7-7-0-0-0-0-|-7-7-7-7-0-0-0-0-|-5-5-5-5-5-5-5-5-|-3-3-3-3-2-2-2-2-|
F#|-7-7-7-7-0-0-0-0-|-7-7-7-7-0-0-0-0-|-5-5-5-5-5-5-5-5-|-3-3-3-3-2-2-2-2-|
B |-7-7-7-7-0-0-0-0-|-7-7-7-7-0-0-0-0-|-5-5-5-5-5-5-5-5-|-3-3-3-3-2-2-2-2-|

C#|-----------------|-----------------|-------------------------|-----------------|
G#|-----------------|-----------------|-------------------------|-----------------|
E |-----------------|-----------------|-------------------------|-----------------|
B |-7-7-7-7-0-0-0-0-|-7-7-7-7-0-0-0-0-|-10-10-10-10-10-10-10-10-|-8-8-8-8-7-7-7-7-|
F#|-7-7-7-7-0-0-0-0-|-7-7-7-7-0-0-0-0-|-10-10-10-10-10-10-10-10-|-8-8-8-8-7-7-7-7-|
B |-7-7-7-7-0-0-0-0-|-7-7-7-7-0-0-0-0-|-10-10-10-10-10-10-10-10-|-8-8-8-8-7-7-7-7-|

C#|-----------------|-----------------|-----------------|-----------------|
G#|-----------------|-----------------|-----------------|-----------------|
E |-----------------|-----------------|-----------------|-----------------|
B |-3-3-3-3-3-3-3-3-|-3-3-3-3-3-3-3-3-|-2-2-2-2-2-2-2-2-|-2-2-2-2-2-2-2-2-|
F#|-3-3-3-3-3-3-3-3-|-3-3-3-3-3-3-3-3-|-2-2-2-2-2-2-2-2-|-2-2-2-2-2-2-2-2-|
B |-3-3-3-3-3-3-3-3-|-3-3-3-3-3-3-3-3-|-2-2-2-2-2-2-2-2-|-2-2-2-2-2-2-2-2-|

Play last 2 bars twice the second time

(Guitar 2) Play all this x2
C#|-------------------------|-------------------------|-------------------------|-------------------------|
G#|-------------------------|-------------------------|-------------------------|-------------------------|
E |-14-14-14-14-14-14-14-14-|-14-14-14-14-14-14-14-14-|-17-17-17-17-17-17-17-17-|-12-12-12-12-12-12-12-12-|
B |-------------------------|-------------------------|-------------------------|-------------------------|
F#|-12-12-12-12-12-12-12-12-|-12-12-12-12-12-12-12-12-|-15-15-15-15-15-17-15-15-|-10-10-10-10-10-10-10-10-|
B |-------------------------|-------------------------|-------------------------|-------------------------|

C#|-------------------------|-------------------------|-------------------------|-----------------|
G#|-------------------------|-------------------------|-------------------------|-----------------|
E |-14-14-14-14-14-14-14-14-|-14-14-14-14-14-14-14-14-|-10-10-10-10-10-10-10-10-|-9-9-9-9-9-9-9-9-|
B |-------------------------|-------------------------|-------------------------|-----------------|
F#|-12-12-12-12-12-12-12-12-|-12-12-12-12-12-12-12-12-|-8--8--8--8--8--8--8--8--|-7-7-7-7-7-7-7-7-|
B |-------------------------|-------------------------|-------------------------|-----------------|

C#|-------------------------|-------------------------|-------------------------|-------------------------|
G#|-------------------------|-------------------------|-------------------------|-------------------------|
E |-14-14-14-14-14-14-14-14-|-14-14-14-14-14-14-14-14-|-17-17-17-17-17-17-17-17-|-12-12-12-12-12-12-12-12-|
B |-------------------------|-------------------------|-------------------------|-------------------------|
F#|-12-12-12-12-12-12-12-12-|-12-12-12-12-12-12-12-12-|-15-15-15-15-15-17-15-15-|-10-10-10-10-10-10-10-10-|
B |-------------------------|-------------------------|-------------------------|-------------------------|

C#|-------------------------|-------------------------|--------------------|--------------------|
G#|-------------------------|-------------------------|--------------------|--------------------|
E |-14-14-14-14-14-14-14-14-|-14-14-14-14-14-14-14-14-|-10-10-10-9-9-9-7-7-|-10-10-10-9-9-9-7-7-|
B |-------------------------|-------------------------|--------------------|--------------------|
F#|-12-12-12-12-12-12-12-12-|-12-12-12-12-12-12-12-12-|-8--8--8--7-7-7-5-5-|-8--8--8--7-7-7-5-5-|
B |-------------------------|-------------------------|--------------------|--------------------|

Play last 2 bars twice the second time
3:21
[Outro]
(Guitar 1) Play all this x2
C#|---------------------------------|------------------------|
G#|---------------------------------|------------------------|
E |---------------------------------|------------------------|
B |-0-0-0---0--0-0-0---0--0-0-0---0-|-0----------------------|
F#|-0-0-0---0--0-0-0---0--0-0-0---0-|-0----------------------|
B |-0-0-0-8-0--0-0-0-8-0--0-0-0-8-0-|-0-7-8-8-10-12-12-12-12-|
>   >      >   >      >   >

C#|----------------------|-------------------------------------------|
G#|----------------------|-------------------------------------------|
E |----------------------|-------------------------------------------|
B |-0-0-0---0--0-0-0---0-|-0-----------------------------------------|
F#|-0-0-0---0--0-0-0---0-|-0-----------------------------------------|
B |-0-0-0-8-0--0-0-0-8-0-|-0-7-h8-0-8-h10-0-7-h8-0-8-h10-12-12-12-12-|
>   >      >   >

(Guitar 2 w/ delay)
C#|---------------------------------|-------------------------------|
G#|---------------------------------|-------------------------------|
E |-p10-7-7-7-p10-7-7-7-p10-7-p10-7-|-p10-7-7-7-p10-7-7-7-p9-7-p9-7-| Play x4
B |---------------------------------|-------------------------------|
F#|---------------------------------|-------------------------------|
B |---------------------------------|-------------------------------|

LiveInternet