AllChordsTabs.com

Sixx Am - Dead Mans Ballet (First Version) Chords and Tabs


Artists:
Chords and Tabs » S » Sixx Am - Dead Mans Ballet (First Version)

Sixx Am - Dead Mans Ballet (First Version)

Sixx Am - Dead Mans Ballet (First Version) Chords / Tabs

Sixx Am - Dead Man's Ballet First Version: chords and tabs for the song. Watch chords and tablatures for all songs of the singer (group) Sixx Am. Other chords and tabs for the "Dead Man's Ballet" can find at the bottom of the page.

Tuning: A Step And A Half Down (Db Ab Db Gb Bb Eb)

Intro (Piano)

eb|---------------------------|
Bb|--6--6--6-5-3--6-5-3-------|
Gb|---------------------------|
Db|---------------------------|
Ab|---------------------------|
Db|---------------------------|X4

Verse (Main Riff)


eb|---------------------------|
Bb|---------------------------|
Gb|---------------------------|
Db|--7------7------7------7-5-|
Ab|--5------5------5------5-3-|
Db|---000000-000000-000000----|X6

Fill 1

eb|---------------------------|---------------------------|
Bb|---------------------------|---------------------------|
Gb|---------------------------|---------------------------|
Db|--12-15-14----15-14----15--|14-11-12-14--12-14-15-17-15|
Ab|-----------14-------11-----|---------------------------|
Db|---------------------------|---------------------------|

eb|--------------------------|
Bb|--------------------------|
Gb|--------------------------|
Db|14-11-12-14-15-14-11-12---|
Ab|--------------------------|
Db|--------------------------|

Verse (Main Riff)


eb|---------------------------|
Bb|---------------------------|
Gb|---------------------------|
Db|--7------7------7------7-5-|
Ab|--5------5------5------5-3-|
Db|---000000-000000-000000----|X4

Bridge (Piano)

eb|--------------10--10-10---|--------------------------|
Bb|-----------------------10-|--------------------------|
Gb|--7--7-7-9-10-------------|11-12---------------------|
Db|--------------------------|--------------------------|
Ab|--------------------------|--------------------------|
Db|--------------------------|--------------------------|

Chorus

eb|--------------------------|
Bb|--2b3-3-------------------|
Gb|--------0--3-2------------|
Db|--------------------------|
Ab|--------------------------|
Db|--------------------------|X4

Verse (Main Riff)


eb|---------------------------|
Bb|---------------------------|
Gb|---------------------------|
Db|--7------7------7------7-5-|
Ab|--5------5------5------5-3-|
Db|---000000-000000-000000----|X6


Fill 1

eb|---------------------------|---------------------------|
Bb|---------------------------|---------------------------|
Gb|---------------------------|---------------------------|
Db|--12-15-14----15-14----15--|14-11-12-14--12-14-15-17-15|
Ab|-----------14-------11-----|---------------------------|
Db|---------------------------|---------------------------|

eb|--------------------------|
Bb|--------------------------|
Gb|--------------------------|
Db|14-11-12-14-15-14-11-12---|
Ab|--------------------------|
Db|--------------------------|


Verse (Main Riff)


eb|---------------------------|
Bb|---------------------------|
Gb|---------------------------|
Db|--7------7------7------7-5-|
Ab|--5------5------5------5-3-|
Db|---000000-000000-000000----|X4

Bridge (Piano)

eb|--------------10--10-10---|--------------------------|
Bb|-----------------------10-|--------------------------|
Gb|--7--7-7-9-10-------------|11-12---------------------|
Db|--------------------------|--------------------------|
Ab|--------------------------|--------------------------|
Db|--------------------------|--------------------------|X2

Chorus

eb|--------------------------|
Bb|--2b3-3-------------------|
Gb|--------0--3-2------------|
Db|--------------------------|
Ab|--------------------------|
Db|--------------------------|X8


Bridge (Piano)

eb|--------------10--10-10---|--------------------------|
Bb|-----------------------10-|--------------------------|
Gb|--7--7-7-9-10-------------|11-12---------------------|
Db|--------------------------|--------------------------|
Ab|--------------------------|--------------------------|
Db|--------------------------|--------------------------|X2

End



So that's the tab for this great song, i hope u like it and plz comment!

LiveInternet