AllChordsTabs.com

Dance Gavin Dance - Blue Dream (First Version) Chords and Tabs


Artists:
Chords and Tabs » D » Dance Gavin Dance - Blue Dream (First Version)

Dance Gavin Dance - Blue Dream (First Version)

Dance Gavin Dance - Blue Dream (First Version) Chords / Tabs

Dance Gavin Dance - Blue Dream First Version: chords and tabs for the song. Watch chords and tablatures for all songs of the singer (group) Dance Gavin Dance. Other chords and tabs for the "Blue Dream" can find at the bottom of the page.

Tuning: Drop D


[Intro/Verse]

e|---------------------------------------------------------------------------|
B|-----8p7---10--------------------------------------------------------------|
G|-----7-----x---11----------------------------------------------------------|
D|-----9-----9---9-----------------------------------------------------------|
A|-----x-----7---12----------------------------------------------------------|
D|-----9-----9---9-----------------------------------------------------------|


[Intro/Verse Variations]

e|------|----------------------|--------|--------------|---------------------|
B|------|----------7h8p7-------|--------|--------------|---------------------|
G|------|------7h9-------9p7---|--11--9-|------777-9---|---------------------|
D|--7h9-|--7h9---------------9-|--12--7-|--7h9---------|---------------------|
A|--x---|----------------------|--------|--x-----------|---------------------|
D|--9---|----------------------|--------|--9-----------|---------------------|


[Chorus]

e|---------------------------------------------------------------------------|
B|---------------------------------------------------------------------------|
G|-------------------9-11-----7-9--------------------------------------------|
D|--------------------------------9------------------------------------------|
A|---7/-----7-9/------------------------9-8-7/-------------------------------|
D|---7/-----7-9/------------------------9-8-7/-------------------------------|


[Post Chorus Riff]

e|-------------------------------------|--------------|----------------------|
B|-------------------------------------|--------------|----------------------|
G|---------12----11-----------16-------|-----12----11-|-  tremelo picking ---|
D|---12-14----14--------12-14----14-14-|--14----14----|- up frets & strings -|
A|-------------------------------------|--------------|----------------------|
D|-------------------------------------|--------------|----------------------|


[Bridge]

e|-----------------|------------|--------------------------------------------|
B|-----------------|------------|--------------------------------------------|
G|-----------------|------------|--------------------------------------------|
D|-4-4-----4-4-----|--------4-4-|--------------------------------------------|
A|-----6-6-----6-6-|-4h6-6------|--4h6-6--2-2--------------------------------|
D|-----------------|------------|--------------------------------------------|
x x     x x   x x x


[Final Riff]

e|---------------------14-11------------------------------------11-----------|
B|--------16b-14----12----------12-14b----11-14~-14~-14~-----11----14--------|
G|-----13--------13----------13--------11-----------------11-----------------|
D|--14-----------------------------------------------------------------------|
A|---------------------------------------------------------------------------|
D|---------------------------------------------------------------------------|


[Outro]

e|---------------------------------------------------------------------------|
B|---------------------------------------------------------------------------|
G|--6---8---6---8---11--8----------------------------------------------------|
D|--x---x---x---x---x---x----------------------------------------------------|
A|--4---6---4---6---9---6----------------------------------------------------|
D|---------------------------------------------------------------------------|


Order:

intro
verse
chorus
post-choeus
verse
chorus
post-chorus
bridge
final riff
outro

LiveInternet