AllChordsTabs.com

Sara Bareilles - Bright Lights And Cityscapes (First Version) Chords and Tabs


Artists:
Chords and Tabs » S » Sara Bareilles - Bright Lights And Cityscapes (First Version)

Sara Bareilles - Bright Lights And Cityscapes (First Version)

Sara Bareilles - Bright Lights And Cityscapes (First Version) Chords / Tabs

Sara Bareilles - Bright Lights And Cityscapes First Version: chords and tabs for the song. Watch chords and tablatures for all songs of the singer (group) Sara Bareilles. Other chords and tabs for the "Bright Lights And Cityscapes" can find at the bottom of the page.

[Intro]
|-3-| |-3-| |-3-| |-3-| |-3-| |-3-| |-3-|   |-3-| |-3-| |-3-| |-3-| |-3-| |-3-| |-3-|
e| |-----5-----5-----5-----5-----5-----5-----5-|-----5-----5-----5-----5-----5-----5-----5-|
C|7|-5-----5-----5-----5-----5-----5-----5-----|-5-----5-----5-----5-----5-----5-----5-----|
G|-|---5-----5-----5-----5-----5-----5-----5---|---5-----5-----5-----5-----5-----5-----5---|
D|4|-3-----5-----7-----8-----------------------|-3-----5-----7-----0-----------------------|
A| |-------------------------------------------|-------------------------------------3-----|
E| |-------------------------------------------|-------------------------------------------|

|-3-| |-3-| |-3-| |-3-| |-3-| |-3-| |-3-|
e| |-----5-----5-----5-----5-----5-----5-----5-|
C|7|-5-----5-----5-----5-----5-----5-----5-----|
G|-|---5-----5-----5-----5-----5-----5-----5---|
D|4|-------------------------------------------|
A| |-------------------------------------------|
E| |-------------6-----------------------------|

[Verse]
|-3-| |-3-| |-3-| |-3-| |-3-| |-3-| |-3-|
e| |-----5-----5-----5-----5-----5-----5-----5-|
C|7|-5-----5-----5-----5-----5-----5-----5-----|
G|-|---5-----5-----5-----5-----5-----5-----5---|
D|4|-3-----5-----7-----8-----------------------|  x3
A| |-------------------------------------------|
E| |-------------------------------------------|
Hold my breath and I'll count to 10
I'm the paper and you're the pen
You fill me in and you are perm-nent

|-3-| |-3-| |-3-| |-3-| |-3-| |-3-| |-3-|   |-3-| |-3-| |-3-| |-3-| |-3-| |-3-| |-3-|
e| |-----5-----5-----5-----5-----5-----5-----5-|-----5-----5-----5-----5-----5-----5-----5-|
C|7|-5-----5-----5-----5-----5-----5-----5-----|-5-----5-----5-----5-----5-----5-----5-----|
G|-|---5-----5-----5-----5-----5-----5-----5---|---5-----5-----5-----5-----5-----5-----5---|
D|4|-3-----5-----7-----0-----------------------|-------------------------------------------|
A| |-------------------------------------------|-------------------------------------------|
E| |-------------------------------------------|-------------6-----------------------------|
and you leave me to dry

|-3-| |-3-| |-3-| |-3-| |-3-| |-3-| |-3-|
e| |-----5-----5-----5-----5-----5-----5-----5-|
C|7|-5-----5-----5-----5-----5-----5-----5-----|
G|-|---5-----5-----5-----5-----5-----5-----5---|
D|4|-3-----5-----7-----8-----------------------|  x3
A| |-------------------------------------------|
E| |-------------------------------------------|
I'm the writer and she's the muse
I'm the one that you always choose
She will falter and gift her blame

|-3-| |-3-| |-3-| |-3-| |-3-| |-3-| |-3-|   |-3-| |-3-| |-3-| |-3-| |-3-| |-3-| |-3-|
e| |-----5-----5-----5-----5-----5-----5-----5-|-----5-----5-----5-----5-----5-----5-----5-|
C|7|-5-----5-----5-----5-----5-----5-----5-----|-5-----5-----5-----5-----5-----5-----5-----|
G|-|---5-----5-----5-----5-----5-----5-----5---|---5-----5-----5-----5-----5-----5-----5---|
D|4|-3-----5-----7-----0-----------------------|-------------------------------------------|
A| |-------------------------------------------|-------------------------------------------|
E| |-------------------------------------------|-------------6-----------------------------|
and it's starts all o-           -ver                 again   again again again. She is

[Pre-chorus]
|-3-| |-3-| |-3-| |-3-| |-3-| |-3-| |-3-|   |-3-| |-3-| |-3-| |-3-| |-3-| |-3-| |-3-|
e| |-----5-----5-----5-----5-----5-----5-----5-|-----5-----5-----5-----5-----5-----5-----5-|
C|7|-5-----5-----5-----5-----5-----5-----5-----|-5-----5-----5-----5-----5-----5-----5-----|
G|-|---5-----5-----5-----5-----5-----5-----5---|---5-----5-----5-----5-----5-----5-----5---|
D|4|-------------------------------------------|-------------------------------------------|
A| |-------------------------------------3-----|-------------4-----------------------------|
E| |-5-----------------6-----------------------|-------------------------------5-----------|
bri-         ght lights                and  cityscapes                      and white

|-3-| |-3-| |-3-| |-3-| |-3-| |-3-| |-3-|       |-3-| |-3-| |-3-|
e| |-----5-----5-----5-----5-----5-----5-----5-| | |-----5-----5-----5-|
C|7|-5-----5-----5-----5-----5-----5-----5-----| |3|-4-----4-----4-----|
G|-|---5-----5-----5-----5-----5-----5-----5---| |-|---5-----5-----5---|
D|4|-------------------------------------------| |4|-------------------|
A| |-------------------------3-----------------| | |-------------------|
E| |-------8-----------------------------------| | |-------------------|
lights and cavalcades                              and she'll take

[Chorus]
|-3-| |-3-| |-3-| |-3-| |-3-| |-3-|   |-3-| |-3-| |-3-| |-3-| |-3-| |-3-|
e| |-----5-----5-----5-----5-----5-----5-|-----5-----5-----5-----5-----5-----5-|
C|6|-5-----5-----5-----5-----5-----5-----|-5-----5-----5-----5-----5-----5-----|
G|-|---5-----5-----5-----5-----5-----5---|---5-----5-----5-----5-----5-----5---|
D|4|-3-----5-----------------------------|-------------------3-----------------|
A| |-------------3-----------------------|-------------------------------------|
E| |-------------------6-----------------|-5-----------------------------------|
all  you    ever  have            but I-     -'m gonna love you     you say

|-3-| |-3-| |-3-| |-3-| |-3-| |-3-|   |-3-| |-3-| |-3-| |-3-| |-3-| |-3-|
e| |-----5-----5-----5-----5-----5-----5-|-----5-----5-----5-----5-----5-----5-|
C|6|-5-----5-----5-----5-----5-----5-----|-5-----5-----5-----5-----5-----5-----|
G|-|---5-----5-----5-----5-----5-----5---|---5-----5-----5-----5-----5-----5---|
D|4|-3-----5-----------------------------|-------------------3-----------------|
A| |-------------5-----3-----------------|-------------------------------------|
E| |-------------------------------------|-5-----------------------------------|
may-  be     it'll last this time  but I-     -'m gonna love you        you

|-3-| |-3-| |-3-| |-3-| |-3-| |-3-|   |-3-| |-3-| |-3-| |-3-| |-3-| |-3-|
e| |-----5-----5-----5-----5-----5-----5-|-----5-----5-----5-----5-----5-----5-|
C|6|-5-----5-----5-----5-----5-----5-----|-5-----5-----5-----5-----5-----5-----|
G|-|---5-----5-----5-----5-----5-----5---|---5-----5-----5-----5-----5-----5---|
D|4|-3-----5-----------------------------|-------------------3-----------------|
A| |-------------5-----3-----------------|-------------------------------------|
E| |-------------------------------------|-5-----------------------------------|
ne-   ver   have to ask               I-     -'m gonna love you       'til

let ring---------------
|-3-| |-3-| |-3-| |-3-| |-3-| |-3-|     Freely-------------
e| |-----5-----5-----5-------------------|   |---|   |---|   |---|
C|6|-5-----5-----5-----5-----------------|   |-4-|   |-5-|   |-7-|
G|-|---5-----5-----5---7-----------------|   |---|   |---|   |---|
D|4|-3-----5-----7-----------------------|   |---|   |---|   |---|
A| |-------------------------------------|   |-3-|   |-5-|   |-7-|
E| |-------------------------------------|   |---|   |---|   |---|
you   start looking back              I'm gonna love you so right

e| |-------------------------------------|
C| |-------------------------------------|
G| |-------------------------------------|
D| |-------------------------------------|
A| |-------------------------------------|
D| |-------------------------------------|
I wouldn't need a second chance

[Bridge]
|-3-| |-3-| |-3-| |-3-| |-3-| |-3-|   |-3-| |-3-| |-3-| |-3-| |-3-| |-3-|
e| |-----5-----5-----5-----5-----5-----5-|-----5-----5-----5-----5-----5-----5-|
C|6|-------5-----5-----5-----5-----5-----|-5-----5-----5-----5-----5-----5-----|
G|-|---5-----5-----5-----5-----5-----5---|---5-----5-----5-----5-----5-----5---|
D|4|-3-----5-----7-----------------------|-3-----5-----7-----0-----------------|
A| |-------------------------------------|-------------------------------------|
E| |-------------------6-----------------|-------------------------------------|
Mmmmm

e| |-----5-----5-----5-----5-----5-----5-| | |-----5-----5-----5-----5-----5-|
C|6|-5-----5-----5-----5-----5-----5-----| |5|-5-----5-----5-----5-----5-----|
G|-|---5-----5-----5-----5-----5-----5---| |-|---5-----5-----5-----5-----5---|
D|4|-------------------------------------| |4|-------------------------------|
A| |-3-----------------------------------| | |-------------------------------|
E| |-------------------6-----------------| | |-------------------------------|

[Verse]
|-3-| |-3-| |-3-| |-3-| |-3-| |-3-|
e| |-----5-----5-----5-----5-----5-----5-|
C|6|-5-----5-----5-----5-----5-----5-----|
G|-|---5-----5-----5-----5-----5-----5---|
D|4|-3-----5-----7-----------------------|  x8
A| |-------------------------------------|
E| |-------------------6-----------------|
Shield your eyes from the truth at hand
Tell me why it'll be good again
All those demons are closing in
And I don't want you to burn
Never mind what I said before
I don't want any less anymore
You are carbon and I am flame
I will rise and you will

e| |-----5-----5-----5-----5-----5-----5-| | |-----5-----5-----5-----5-----5-|
C|6|-5-----5-----5-----5-----5-----5-----| |5|-5-----5-----5-----5-----5-----|
G|-|---5-----5-----5-----5-----5-----5---| |-|---5-----5-----5-----5-----5---|
D|4|-0-----------------------------------| |4|-------------------------------|
A| |-------------------3-----------------| | |-------------------------------|
E| |-------------------------------------| | |-6-----------------------------|
Rema-                                            -in                  for

[Pre-chorus]
|-3-| |-3-| |-3-| |-3-| |-3-| |-3-|   |-3-| |-3-| |-3-| |-3-| |-3-| |-3-|
e| |-----5-----5-----5-----5-----5-----5-|-----5-----5-----5-----5-----5-----5-|
C|6|-------5-----5-----5-----5-----5-----|-5-----5-----5-----5-----5-----5-----|
G|-|---5-----5-----5-----5-----5-----5---|---5-----5-----5-----5-----5-----5---|
D|4|-------------------------------------|-------------------0-----------------|
A| |-------------------------------------|-3-----------------------------------|
E| |-5-----------------6-----------------|-------------------------------------|
bri-         ght lights               and cityscapes                   and

|-3-| |-3-| |-3-| |-3-| |-3-| |-3-|   |-3-| |-3-| |-3-| |-3-| |-3-| |-3-|
e| |-----5-----5-----5-----5-----5-----5-|-----5-----5-----5-----5-----5-----5-|
C|6|-------5-----5-----5-----5-----5-----|-5-----5-----5-----5-----5-----5-----|
G|-|---5-----5-----5-----5-----5-----5---|---5-----5-----5-----5-----5-----5---|
D|4|-------------------------------------|-------------------------------------|
A| |-------------------------------------|-3-----------------3-----------------|
E| |-5-----------------6-----------------|-------------------------------------|
landslides                      and masquera-            des         and she'll take

[Chorus]
|-3-| |-3-| |-3-| |-3-| |-3-| |-3-|   |-3-| |-3-| |-3-| |-3-| |-3-| |-3-|
e| |-----5-----5-----5-----5-----5-----5-|-----5-----5-----5-----5-----5-----5-|
C|6|-5-----5-----5-----5-----5-----5-----|-5-----5-----5-----5-----5-----5-----|
G|-|---5-----5-----5-----5-----5-----5---|---5-----5-----5-----5-----5-----5---|
D|4|-0-----3-----------------------------|-------------------0-----------------|
A| |-------------3-----------------------|-------------------------------------|
E| |-------------------6-----------------|-5-----------------------------------|
all  you    ever  have                   but I-    'm gonna love you

|-3-| |-3-| |-3-| |-3-| |-3-| |-3-|   |-3-| |-3-| |-3-| |-3-| |-3-| |-3-|
e| |-----5-----5-----5-----5-----5-----5-|-----5-----5-----5-----5-----5-----5-|
C|6|-5-----5-----5-----5-----5-----5-----|-5-----5-----5-----5-----5-----5-----|
G|-|---5-----5-----5-----5-----5-----5---|---5-----5-----5-----5-----5-----5---|
D|4|-0-----3-----------------------------|-------------------0-----------------|
A| |-------------3-----------------------|-------------------------------------|
E| |-------------------6-----------------|-5-----------------------------------|
you say may-  be     it'll last this time  but I-     -'m gonna love you        you

|-3-| |-3-| |-3-| |-3-| |-3-| |-3-|   |-3-| |-3-| |-3-| |-3-| |-3-| |-3-|
e| |-----5-----5-----5-----5-----5-----5-|-----5-----5-----5-----5-----5-----5-|
C|6|-5-----5-----5-----5-----5-----5-----|-5-----5-----5-----5-----5-----5-----|
G|-|---5-----5-----5-----5-----5-----5---|---5-----5-----5-----5-----5-----5---|
D|4|-0-----3-----------------------------|-------------------3-----------------|
A| |-------------3-----------------------|-------------------------------------|
E| |-------------------6-----------------|-5-----------------------------------|
ne-   ver   have to ask                 I-   -'m gonna love you       'til

let ring------------------
|-3-| |-3-| |-3-| |-3-| |-3-| |-3-|       |-3-| |-3-| |-3-|
e| |-----5-----5-----5-------------------| | |-------------------|
C|6|-5-----5-----5-----5-----------------| |3|-------------------|
G|-|---5-----5-----5---------------------| |-|-------------------|
D|4|-0-----2-----3-----------------------| |4|-------------------|
A| |-------------------------------------| | |-------------------|
E| |-------------------6-----------------| | |-------------------|
you start looking back

[Outro]
|-3-| |-3-| |-3-| |-3-| |-3-| |-3-|
e| |-----5-----5-----5-----5-----5-----5-|-----5-----5-----5-----5-----5-----5-|
C|6|-5-----5-----5-----5-----5-----5-----|-5-----5-----5-----5-----5-----5-----|
G|-|---5-----5-----5-----5-----5-----5---|---5-----5-----5-----5-----5-----5---|
D|4|-3-----5-----7-----------------------|-3-----5-----7-----0-----------------|
A| |-------------------------------------|-------------------------------------|
E| |-------------------6-----------------|-------------------------------------|

e| |-----5-----5-----5-----5-----5-----5-| | |-----5-----5-----5-----5-|
C|6|-5-----5-----5-----5-----5-----5-----| |4|-5-----5-----5-----5-----|
G|-|---5-----5-----5-----5-----5-----5---| |-|---5-----5-----5-----5---|
D|4|-------------------------------------| |4|-------------------------|
A| |-3-----------------------------------| | |-------------------------|
E| |-------------------6-----------------| | |-------------------------|
I wouldn't need a second chance

|-3-| |-3-| |-3-| |-3-| |-3-| |-3-| |-3-|   |-3-| |-3-| |-3-| |-3-| |-3-| |-3-| |-3-|
e| |-----5-----5-----5-----5-----5-----5-----5-|-----5-----5-----5-----5-----5-----5-----5-|
C|7|-5-----5-----5-----5-----5-----5-----5-----|-5-----5-----5-----5-----5-----5-----5-----|
G|-|---5-----5-----5-----5-----5-----5-----5---|---5-----5-----5-----5-----5-----5-----5---|
D|4|-3-----5-----7-----8-----------------------|-0-----3-----------------------------------|
A| |-------------------------------------------|-------------3-----------------------------|
E| |-------------------------------------------|-------------------6-----------------------|
I wouldn't need a second chance              I wouldn't need a second chance
(I wouldn't need a second chance)              (I wouldn't need a

let ring---------------------
|-3-| |-3-| |-3-| |-3-| |-3-| |-3-| |-3-|   |-3-| |-3-| |-3-| |-3-| |-3-| |-3-| |-3-|
e| |-----5-----5-----5-----5-----5-----5-----5-|-----5-----5-----5-------------------------|
C|7|-5-----5-----5-----5-----5-----5-----5-----|-5-----5-----5-----------------------------|
G|-|---5-----5-----5-----5-----5-----5-----5---|---5-----5-----5---------------------------|
D|4|-------------0-----------------------------|-0-----2-----3-----------------------------|
A| |-------------------3-----------------------|-------------------------------------------|
E| |-5-----6-----------------------------------|-------------------------------------------|
I wouldn't need a second chance              I wouldn't need a second chance
second chance)   (I wouldn't need a second chance)

LiveInternet