AllChordsTabs.com

The Dead Weather - Be Still (First Version) Chords and Tabs


Artists:
Chords and Tabs » T » The Dead Weather - Be Still (First Version)

The Dead Weather - Be Still (First Version)

The Dead Weather - Be Still (First Version) Chords / Tabs

The Dead Weather - Be Still First Version: chords and tabs for the song. Watch chords and tablatures for all songs of the singer (group) The Dead Weather. Other chords and tabs for the "Be Still" can find at the bottom of the page.

[Intro]
x3
e|---------------------------------------|-----------------------------------|
B|---------------------------------------|-----------------------------------|
G|---------------------------------------|-----------------------------------|
D|---------------------------------------|--13-13-13-13----------------------|
A|--------------13-13-13-10-10-10-10-----|-------------13-13-13-15-15-15-15--|
E|--11-11-11-11--------------------------|-----------------------------------|

[Verse]
x3
e|----------------------------|---------------------------|
B|----------------------------|---------------------------|
G|----------------------------|---------------------------|
D|----------------------------|-----11-10-8-10-8----------| x4
A|--10-10-10-10-----------|--10--------------10-------|
E|----------------------------|---------------------------|

[Chorus]
x3
e|---------------------------------------|-----------------------------------|
B|---------------------------------------|-----------------------------------|
G|---------------------------------------|-----------------------------------|
D|---------------------------------------|--13-13-13-13----------------------|
A|--------------13-13-13-10-10-10-10-----|-------------13-13-13-15-15-15-15--|
E|--11-11-11-11--------------------------|-----------------------------------|

[Bridge]

e|----------------------------|---------------------------|
B|----------------------------|---------------------------|
G|----------------------------|---------------------------|
D|----------------------------|-----11-10-8-10-8----------|
A|--10-10-10-10-----------|--10--------------10-------|
E|----------------------------|---------------------------|

[Verse]
x3
e|----------------------------|---------------------------|
B|----------------------------|---------------------------|
G|----------------------------|---------------------------|
D|----------------------------|-----11-10-8-10-8----------| x4
A|--10-10-10-10-----------|--10--------------10-------|
E|----------------------------|---------------------------|

[Chorus]
x3
e|---------------------------------------|-----------------------------------|
B|---------------------------------------|-----------------------------------|
G|---------------------------------------|-----------------------------------|
D|---------------------------------------|--13-13-13-13----------------------|
A|--------------13-13-13-10-10-10-10-----|-------------13-13-13-15-15-15-15--|
E|--11-11-11-11--------------------------|-----------------------------------|

[Outro]

e|----------------------------|---------------------------|
B|----------------------------|---------------------------|
G|----------------------------|---------------------------|
D|----------------------------|-----11-10-8-10-8----------|
A|--10-10-10-10-----------|--10--------------10-------|
E|----------------------------|---------------------------|

LiveInternet