AllChordsTabs.com

Bomb The Music Industry - 9/11 Fever!!! (First Version) Chords and Tabs


Artists:
Chords and Tabs » B » Bomb The Music Industry - 9/11 Fever!!! (First Version)

Bomb The Music Industry - 9/11 Fever!!! (First Version)

Bomb The Music Industry - 9/11 Fever!!! (First Version) Chords / Tabs

Bomb The Music Industry - 9/11 Fever!!! First Version: chords and tabs for the song. Watch chords and tablatures for all songs of the singer (group) Bomb The Music Industry. Other chords and tabs for the "9/11 Fever!!!" can find at the bottom of the page.

Tuning: BFDAEB
All strings tuned 2 1/2 steps down

Intro riff: first time
b|---------------------------------------------------------------------------|
F|---------------------------------------------------------------------------|
D|---------------------------------------------------------------------------|
A|-----6---------------------6-----------------------------------------------|
E|-5h7---7----7-7-7-7p5--5h7---7---7-7-7-7p5-7p5-----------------------------|
B|---------------------------------------------------------------------------|

Intro riff: second time
b|---------------------------------------------------------------------------|
F|---------------------------------------------------------------------------|
D|---------------------------------------------------------------------------|
A|-----6---------------------6-----------------------------------------------|
E|-5h7---7----7-7-7-7p5--5h7---7---7-7-7-7p5-7p5-7p5-7p5---------------------|
B|---------------------------------------------------------------------------|

We can't forget 3000 lives
b|-2------------------------------------------------------------------------|
F|-2------------------------------------------------------------------------|
D|-2-----(let-ring)---------------------------------------------------------|
A|-2------------------------------------------------------------------------|
E|-0------------------------------------------------------------------------|
B|--------------------------------------------------------------------------|

We got the flight to prove it
We got the sticker and the bracelet
We got a list of specials
And we'll...
b|----------------------------------------------------------------------------------------|
F|----------------------------------------------------------------------------------------|
D|----------------------------------------------------------------------------------------|
A|----------------------------------------------------------------------------------------|
E|----------------------------------------------------------------------------------------|
B|-0-5h7-0-4---0-5h7-0--5h7-0-4---0-5h7-4--0--5h7-0-4---0-5h7-0-5h7-0-4-0--5h7-0-5h7-0-4--|


...miss it,      We waste no time
b|-2----------------4------------------------------------------------|
F|-2----------------5------------------------------------------------|
D|-2----------------6------------------------------------------------|
A|-2----------------6------------------------------------------------|
E|-0----------------4------------------------------------------------|
B|-------------------------------------------------------------------|

I got the fever for a feature!

b|---------------------------------------------------------------------------|
F|---------------------------------------------------------------------------|
D|-9-9-9-9-9-9-9-9--14-14-14-14-14---14--------------------------------------|
A|-9-9-9-9-9-9-9-9--14-14-14-14-14---14--------------------------------------|
E|-7-7-7-7-7-7-7-7--12-12-12-12-12---11--------------------------------------|
B|---------------------------------------------------------------------------|

A new target for a campaign speech and
b|---------------------------------------------------------------------------|
F|---------------------------------------------------------------------------|
D|-11-11-11-11-11-11-11-11-16-16-16-16-16-16-16-16---------------------------|
A|-11-11-11-11-11-11-11-11-16-16-16-16-16-16-16-16---------------------------|
E|-9--9--9--9--9--9--9--9--14-14-14-14-14-14-14-14---------------------------|
B|---------------------------------------------------------------------------|

A couple cents off at the pump tonight
b|---------------------------------------------------------------------------------|
F|---------------------------------------------------------------------------------|
D|-13-13-13-13-13-13-13-13-14-14-14-14-14-14-14-14---14--x-14--x-14--x-14--x-14----|
A|-13-13-13-13-13-13-13-13-14-14-14-14-14-14-14-14---14--x-14--x-14--x-14--x-14----|
E|-11-11-11-11-11-11-11-11-12-12-12-12-12-12-12-12---12--x-12--x-12--x-12--x-12----|
B|---------------------------------------------------------------------------------|

...hit of the summer?
Where Nick Cage really learns something
Or the made for TV special
Where the pimp from...

b|----------------------------------------------------------------------------------------|
F|----------------------------------------------------------------------------------------|
D|----------------------------------------------------------------------------------------|
A|----------------------------------------------------------------------------------------|
E|----------------------------------------------------------------------------------------|
B|-0-5h7-0-4---0-5h7-0--5h7-0-4---0-5h7-4--0--5h7-0-4---0-5h7-0-5h7-0-4-0--5h7-0-5h7-0-4--|

Or how about some amateur footage....
b|-------16-------16---------16--------16------------------------------------|
F|-16h18----16h18------16h18-----16h18------18p16----------------------------|
D|---------------------------------------------------------------------------|
A|---------------------------------------------------------------------------|
E|---------------------------------------------------------------------------|
B|---------------------------------------------------------------------------|
Of southern Virginians crying to the camera and
b|-------16-------16---------16--------16------------------------------------|
F|-16h18----16h18------16h18-----16h18------18p16-18p16----------------------|
D|---------------------------------------------------------------------------|
A|---------------------------------------------------------------------------|
E|---------------------------------------------------------------------------|
B|---------------------------------------------------------------------------|
Shopping at Rite-Aid buying flags to translate
b|-------16-------16---------16--------16------------------------------------|
F|-16h18----16h18------16h18-----16h18------18p16----------------------------|
D|---------------------------------------------------------------------------|
A|---------------------------------------------------------------------------|
E|---------------------------------------------------------------------------|
B|---------------------------------------------------------------------------|

What they gotta prove on this year's anniversary
b|-------16-------16---------16--------16------------------------------------|
F|-16h18----16h18------16h18-----16h18------18p16-18p16----------------------|
D|---------------------------------------------------------------------------|
A|---------------------------------------------------------------------------|
E|---------------------------------------------------------------------------|
B|---------------------------------------------------------------------------|

Mourning the loss, but what can you do
But paint the evening news logo red white and blue
b|-2----------------4------------------------------------------------|
F|-2----------------5------------------------------------------------|
D|-2----------------6------------------------------------------------|
A|-2----------------6------------------------------------------------|
E|-0----------------4------------------------------------------------|
B|-------------------------------------------------------------------|


I got the fever for a feature!

b|---------------------------------------------------------------------------|
F|---------------------------------------------------------------------------|
D|-9-9-9-9-9-9-9-9--14-14-14-14-14---14--------------------------------------|
A|-9-9-9-9-9-9-9-9--14-14-14-14-14---14--------------------------------------|
E|-7-7-7-7-7-7-7-7--12-12-12-12-12---11--------------------------------------|
B|---------------------------------------------------------------------------|

A new target for a campaign speech and

b|-------------------------------------------------------------------|
F|-------------------------------------------------------------------|
D|-11-11-11-11-11-11-11-11-16-16-16-16-16-16-16-16-------------------|
E|-11-11-11-11-11-11-11-11-16-16-16-16-16-16-16-16-------------------|
A|-9--9--9--9--9--9--9--9--14-14-14-14-14-14-14-14-------------------|
B|-------------------------------------------------------------------|
Another moot point on the floor tonight
b|--------------------------------------------------------------|
F|--------------------------------------------------------------|
D|-13-13-13-13-13-13-13-13-14-14-14-14-14-14-14-14--------------|
A|-13-13-13-13-13-13-13-13-14-14-14-14-14-14-14-14--------------|
E|-11-11-11-11-11-11-11-11-12-12-12-12-12-12-11-11--------------|
B|--------------------------------------------------------------|


I got the fever for a feature!

b|-----------------------------------------------------------------------|
F|-----------------------------------------------------------------------|
D|-9-9-9-9-9-9-9-9--14-14-14-14-14---14----------------------------------|
A|-9-9-9-9-9-9-9-9--14-14-14-14-14---14----------------------------------|
E|-7-7-7-7-7-7-7-7--12-12-12-12-12---11----------------------------------|
B|-----------------------------------------------------------------------|

A holiday for a high school teacher

e|------------------------------------------------------------------------|
B|------------------------------------------------------------------------|
G|-11-11-11-11-11-11-11-11-16-16-16-16-16-16-16-16------------------------|
D|-11-11-11-11-11-11-11-11-16-16-16-16-16-16-16-16------------------------|
A|-9--9--9--9--9--9--9--9--14-14-14-14-14-14-14-14------------------------|
E|------------------------------------------------------------------------|

And a couple cents off at the pump tonight
b|---------------------------------------------------------------------------------|
F|---------------------------------------------------------------------------------|
D|-13-13-13-13-13-13-13-13-14-14-14-14-14-14-14-14---14--x-14--x-14--x-14--x-14----|
A|-13-13-13-13-13-13-13-13-14-14-14-14-14-14-14-14---14--x-14--x-14--x-14--x-14----|
E|-11-11-11-11-11-11-11-11-12-12-12-12-12-12-12-12---12--x-12--x-12--x-12--x-12----|
B|---------------------------------------------------------------------------------|

Outro
b|----------------------------------------------------------------------------------------|
F|----------------------------------------------------------------------------------------|
D|----------------------------------------------------------------------------------------|
A|----------------------------------------------------------------------------------------|
E|----------------------------------------------------------------------------------------|
B|-0-5h7-0-4---0-5h7-0--5h7-0-4---0-5h7-4--0--5h7-0-4---0-5h7-0-5h7-0-4-0--5h7-0-5h7-0-4--|

Guitar 1
b|----------------------------------------------------------------------------------------|
F|----------------------------------------------------------------------------------------|
D|----------------------------------------------------------------------------------------|
A|----------------------------------------------------------------------------------------|
E|----------------------------------------------------------------------------------------|
B|-0-5h7-0-4---0-5h7-0--5h7-0-4---0-5h7-4--0--5h7-0-4---0-5h7-0-5h7-0-4-0--5h7-0-5h7-0-4--|

Guitar 2
b|-0-5h7-0-4---0-5h7-0--5h7-0-4---0-5h7-4--0--5h7-0-4---0-5h7-0-5h7-0-4-0--5h7-0-5h7-0-4--|
F|----------------------------------------------------------------------------------------|
D|----------------------------------------------------------------------------------------|
A|----------------------------------------------------------------------------------------|
E|----------------------------------------------------------------------------------------|
B|----------------------------------------------------------------------------------------|


Last part
b|-0----------0-0-------------0-----------0-0-------------0-------------------------------|
F|-0----------0-0-------------0-----------0-0-------------0-------------------------------|
D|-1----------1-1-------------1-----------1-1-------------1-------------------------------|
A|-2----------2-2-------------2-----------2-2-------------2-------------------------------|
E|-2----------2-2-------------2-----------2-2-------------2-------------------------------|
B|-0-5h7-0-4--0-0--5h7-0-4--4-0--5h7-0-4--0-0--5h7-0-4-4--0-------------------------------|



| /  slide up
|   slide down
| h  hammer-on
| p  pull-off
| ~  vibrato
| +  harmonic
| x  Mute note

LiveInternet