AllChordsTabs.com

Customs - Talk More Nonsense (First Version) Chords and Tabs


Artists:
Chords and Tabs » C » Customs - Talk More Nonsense (First Version)

Customs - Talk More Nonsense (First Version)

Customs - Talk More Nonsense (First Version) Chords / Tabs

Customs - Talk More Nonsense First Version: chords and tabs for the song. Watch chords and tablatures for all songs of the singer (group) Customs. Other chords and tabs for the "Talk More Nonsense" can find at the bottom of the page.

################################
#Song: Talk More Nonsense      #
#Band: Customs (Belgian)       #
#Tab: Bladerkeuh               #
#Tuning: Standard              #
################################


Hi,

I got a request to tab this song out,
so I did my best :)
For this song, you either have to tremolo
pick, or have an effect pedal with a
tremolo effect.
For those with a ZOOM pedal: I've put the
settings that I found below.
I put the difficulty because of the (possible) tremolo picking,
and the solo with hammer-ons and pull-offs.

For any comments/questions on the tab:

Good luck and have fun!

ZOOM settings:
COMP	CP	2	FS	50
WAH	tr	50	50	t9
ZNR	nr	7
DRIVE	Gu	40	8	48
EQ	E9
EXTRA	Et	2	2	0
MOD	OFF
DELAY	OFF
REVERB	OFF
CONTROL	CT	BU	BD	80


Intro + verse
During the verse, the rythm guitar (singer)
plays some chords, but they are less typical for
the song than the main riff played by the lead guitar,
so I only tabbed out the lead guitar.

|--------------------------|
|--------------------------|
|-----------------12-9~----| x3
|---10-7--12-10-7----------|
|-0------------------------|
|--------------------------|

|--------------------------|
|--------------------------|
|--------------------------|
|---10-7--12-10-7-5~~~-----|
|-0------------------------|
|--------------------------|
|tr off
|stop tremolo picking
Play two times


Chorus

In the chorus, I can't hear a clear guitar sound,
edit: in the meanwhile, I saw a clip of a live performance
in which I can see what he plays, but at this time I'm a
bit too lazy, so if you really want to know the exact chords,
otherwhise, you can play with these powerchords:

|---------------------------|
|---------------------------|
|-----------5---------------|
|-7----5----5---------------|
|-7----5----3---------------|
|-5----3--------------------|
| to end the chorus
Just play a little with rythm using palm mute
and open play with these chords,
and you can find a fun and good sounding chorus
yourself :)

verse

|--------------------------|
|--------------------------|
|-----------------12-9~----| x3
|---10-7--12-10-7----------|
|-0------------------------|
|--------------------------|

|--------------------------|
|--------------------------|
|--------------------------|
|---10-7--12-10-7-5~~~-----|
|-0------------------------|
|--------------------------|
|tr off
|stop tremolo picking
Play two times


Solo

This is kind of an intermediary riff,
quite hard to tab, but I think it's something
like this:

|--------------------------|
|--------------------------|
|--------------------------|
|--------------------------|
|--------------------------|
|-33-55-33-55--55-55-------|
x2
|--------------------------|
|--------------------------|
|--------------------------|
|--------------------------|
|--------------------------|
|-33-55-33-55--55----------|


Chorus

Again, play with the powerchords ;)



Verse

same as above, play till the end of the song.

That's it, hope you liked it
(rates or comments are welcome ;))

LiveInternet