AllChordsTabs.com

Linkin Park - 08 - Figure (Third Version) Chords and Tabs


Artists:
Chords and Tabs » L » Linkin Park - 08 - Figure (Third Version)

Linkin Park - 08 - Figure (Third Version)

Linkin Park - 08 - Figure (Third Version) Chords / Tabs

Linkin Park - 08 - Figure Third Version: chords and tabs for the song. Watch chords and tablatures for all songs of the singer (group) Linkin Park. Other chords and tabs for the "08 - Figure" can find at the bottom of the page.

I'm pretty sure this tab is mostly correct, its
not really a hard song at all, timing is mainly
the hardest part. Just listen to the song and
get the timing down for all the parts to the
song and the rest will be easy. Hope you guys
like it .


[ The tuning for this is a full step down in Drop-D ]

- [ Intro ] -

|----------------------------------------------------------------
|----------------------------------------------------------------
|----------------------------------------------------------------
|----------------------------------------------------------------
|--5---8--5---8--5---8--5/6-5/6---5/6----------------------------
|----0------0------0---------------------------------------------


|----------------------------------------------------------------
|----------------------------------------------------------------
|----------------------------------------------------------------
|-----------------------0/1-1-1-1-0/1----------------------------
|--5---8--5---8--5---8--0/1-1-1-1-0/1----------------------------
|----0------0------0----0/1-1-1-1-0/1----------------------------


|----------------------------------------------------------------
|----------------------------------------------------------------
|-----7--------7--------7----------------------------------------
|--0-----5--0-----5--0-----5--0/1-1-1-1-0/1----------------------
|--0--5--3--0--5--3--0--5--3--0/1-1-1-1-0/1----------------------
|--0-----3--0-----3--0-----3--0/1-1-1-1-0/1---------------------- [x2]




- [ Verse ] -


|----------------------------------------------------------------
|----------------------------------------------------------------
|-----7------7------7--------------------------------------------
|--0------0------0------0/1-1-1-1-0/1----------------------------
|--0--5---0--5---0--5---0/1-1-1-1-0/1----------------------------
|--0------0------0------0/1-1-1-1-0/1---------------------------- [x2]

|----------------------------------------------------------------
|----------------------------------------------------------------
|-----7--------7--------7----------------------------------------
|--0-----5--0-----5--0-----5--0/1-1-1-1-0/1----------------------
|--0--5--3--0--5--3--0--5--3--0/1-1-1-1-0/1----------------------
|--0-----3--0-----3--0-----3--0/1-1-1-1-0/1---------------------- [x2]




- [ Pre-Chorus ] -

|----------------------------------------------------------------
|----------------------------------------------------------------
|----------------------------------------------------------------
|--0-0-8--0-0-8--0-0-8--0----------------------------------------
|--0-0-8--0-0-8--0-0-8--0----------------------------------------
|--0-0-8--0-0-8--0-0-8--0----------------------------------------




- [ Chorus ] -

|----------------------------------------------------------------
|----------------------------------------------------------------
|----------------------------------------------------------------
|--0-0-0-0-8-8-8-8-3-3-3-3-5-5-7-7-------------------------------
|--0-0-0-0-8-8-8-8-3-3-3-3-5-5-7-7-------------------------------
|--0-0-0-0-8-8-8-8-3-3-3-3-5-5-7-7------------------------------- [x4]




- [ Intro ] -


|----------------------------------------------------------------
|----------------------------------------------------------------
|-----7--------7--------7----------------------------------------
|--0-----5--0-----5--0-----5--0/1-1-1-1-0/1----------------------
|--0--5--3--0--5--3--0--5--3--0/1-1-1-1-0/1----------------------
|--0-----3--0-----3--0-----3--0/1-1-1-1-0/1----------------------



- [ Verse ] -


|----------------------------------------------------------------
|----------------------------------------------------------------
|-----7------7------7--------------------------------------------
|--0------0------0------0/1-1-1-1-0/1----------------------------
|--0--5---0--5---0--5---0/1-1-1-1-0/1----------------------------
|--0------0------0------0/1-1-1-1-0/1---------------------------- [x2]

|----------------------------------------------------------------
|----------------------------------------------------------------
|-----7--------7--------7----------------------------------------
|--0-----5--0-----5--0-----5--0/1-1-1-1-0/1----------------------
|--0--5--3--0--5--3--0--5--3--0/1-1-1-1-0/1----------------------
|--0-----3--0-----3--0-----3--0/1-1-1-1-0/1---------------------- [x2]





- [ Pre-Chorus ] -

|----------------------------------------------------------------
|----------------------------------------------------------------
|----------------------------------------------------------------
|--0-0-8--0-0-8--0-0-8--0----------------------------------------
|--0-0-8--0-0-8--0-0-8--0----------------------------------------
|--0-0-8--0-0-8--0-0-8--0----------------------------------------




- [ Chorus ] -

|----------------------------------------------------------------
|----------------------------------------------------------------
|----------------------------------------------------------------
|--0-0-0-0-8-8-8-8-3-3-3-3-5-5-7-7-------------------------------
|--0-0-0-0-8-8-8-8-3-3-3-3-5-5-7-7-------------------------------
|--0-0-0-0-8-8-8-8-3-3-3-3-5-5-7-7------------------------------- [x3]

|----------------------------------------------------------------
|----------------------------------------------------------------
|----------------------------------------------------------------
|--0-0-0-0-8-8-8-8-3-3-3-3-5-5-1-0/1-1-1-1-1-1-1-1---------------
|--0-0-0-0-8-8-8-8-3-3-3-3-5-5-1-0/1-1-1-1-1-1-1-1---------------
|--0-0-0-0-8-8-8-8-3-3-3-3-5-5-1-0/1-1-1-1-1-1-1-1---------------



- [ Intro ] -

|----------------------------------------------------------------
|----------------------------------------------------------------
|----------------------------------------------------------------
|----------------------------------------------------------------
|--5---8--5---8--5---8--5/6-5/6---5/6----------------------------
|----0------0------0---------------------------------------------


|----------------------------------------------------------------
|----------------------------------------------------------------
|----------------------------------------------------------------
|-----------------------0/1-1-1-1-0/1----------------------------
|--5---8--5---8--5---8--0/1-1-1-1-0/1----------------------------
|----0------0------0----0/1-1-1-1-0/1----------------------------



- [ Bridge ] -


|----------------------------------------------------------------
|----------------------------------------------------------------
|------------------- 11--------------------7---------------------
|--1-0-x-x-x-0/1/3-x-----1-0-x-x-x-0/1/3-x-----------------------
|--1-0-x-x-x-0/1/3-x-8---1-0-x-x-x-0/1/3-x-5---------------------
|--1-0-x-x-x-0/1/3-x-----1-0-x-x-x-0/1/3-x-----------------------


|----------------------------------------------------------------
|----------------------------------------------------------------
|------------------- 11------------------------------------------
|--1-0-x-x-x-0/1/3-x-----1-0-x-x-x-0/1/3-x-x-x-------------------
|--1-0-x-x-x-0/1/3-x-8---1-0-x-x-x-0/1/3-x-x-x-------------------
|--1-0-x-x-x-0/1/3-x-----1-0-x-x-x-0/1/3-x-x-x-------------------


|----------------------------------------------------------------
|----------------------------------------------------------------
|------------------- 11--------------------7---------------------
|--1-0-x-x-x-0/1/3-x-----1-0-x-x-x-0/1/3-x-----------------------
|--1-0-x-x-x-0/1/3-x-8---1-0-x-x-x-0/1/3-x-5---------------------
|--1-0-x-x-x-0/1/3-x-----1-0-x-x-x-0/1/3-x-----------------------


|----------------------------------------------------------------
|----------------------------------------------------------------
|------------------- 11------------------------------------------
|--1-0-x-x-x-0/1/3-x-----1-0-x-x-x-0/1/3-x-x-x-------------------
|--1-0-x-x-x-0/1/3-x-8---1-0-x-x-x-0/1/3-x-x-x-------------------
|--1-0-x-x-x-0/1/3-x-----1-0-x-x-x-0/1/3-x-x-x-------------------





- [ Chorus ] -

|----------------------------------------------------------------
|----------------------------------------------------------------
|----------------------------------------------------------------
|--0-0-0-0-8-8-8-8-3-3-3-3-5-5-7-7-------------------------------
|--0-0-0-0-8-8-8-8-3-3-3-3-5-5-7-7-------------------------------
|--0-0-0-0-8-8-8-8-3-3-3-3-5-5-7-7------------------------------- [x7]


|----------------------------------------------------------------
|----------------------------------------------------------------
|----------------------------------------------------------------
|--0-0-0-0-8-8-8-8-3-3-3-3-5-5-1-0/1-1-1-1-1-1-1-1---------------
|--0-0-0-0-8-8-8-8-3-3-3-3-5-5-1-0/1-1-1-1-1-1-1-1---------------
|--0-0-0-0-8-8-8-8-3-3-3-3-5-5-1-0/1-1-1-1-1-1-1-1---------------

In addition to Chords / Tabs Linkin Park - 08 - Figure (Third Version), we offer an excerpt from a random book.Yes, according to his legend, he spent all this time at the studio - allegedly he was not at all embarrassed by the nasty smell.

LiveInternet