AllChordsTabs.com

Jimmy Eat World - Invented (Second Version) Chords and Tabs


Artists:
Chords and Tabs » J » Jimmy Eat World - Invented (Second Version)

Jimmy Eat World - Invented (Second Version)

Jimmy Eat World - Invented (Second Version) Chords / Tabs

Jimmy Eat World - Invented Second Version: chords and tabs for the song. Watch chords and tablatures for all songs of the singer (group) Jimmy Eat World. Other chords and tabs for the "Invented" can find at the bottom of the page.

Tuning: e B G D A D

e|-----------------------------------------------------------------------------|
B|-|----3-3----------------------------|---------------------------------------|
G|-|----2-2------7-7------4-4------7-7-|---------------------------------------|
D|-|-000000--0555555--5222222--2555555-|---------------------------------------|
A|-|-000000--0555555--5222222--2555555-|-(2X)----------------------------------|
D|-|-000000--0555555--5222222--2555555-|---------------------------------------|

e|-----------------------------------------------------------------------------|
B|-|----3-3----------------------------|---------------------------------------|
G|-|----2-2------7-7------4-4------7-7-|---------------------------------------|
D|-|-000000--0555555--5222222--2555555-|---------------------------------------|
A|-|-000000--0555555--5222222--2555555-|-(4X)----------------------------------|
D|-|-000000--0555555--5222222--2555555-|---------------------------------------|

e|-----------------------------------------------------------------------------|
B|-----------------------------------------------------------------------------|
G|---------------7---7----------------7--7------7----7-------------------------|
D|--9999/7777/5555--55--59999/7777/5555-55--55555--5555------------------------|
A|--9999/7777/5555--55--59999/7777/5555-55--55555--5555------------------------|
D|--9999/7777/5555--55--59999/7777/5555-55--55555--5555------------------------|

e|--------------------------5--------------5------|----------------------------|
B|-|----3-3---------------------------------------|----------------------------|
G|-|----2-2-------4-4-----7-------------7---------|----------------------------|
D|-|-000000--02222222--55------555555--------5555-|-(4X)-----------------------|
A|-|-000000--02222222--55------555555--------5555-|----------------------------|
D|-|-000000--02222222--55------555555--------5555-|----------------------------|

e|-----------------------------------------------------------------------------|
B|-----------------------------------------------------------------------------|
G|---------------7---7----------------7--7------7----7-------------------------|
D|--9999/7777/5555--55--59999/7777/5555-55--55555--5555------------------------|
A|--9999/7777/5555--55--59999/7777/5555-55--55555--5555------------------------|
D|--9999/7777/5555--55--59999/7777/5555-55--55555--5555------------------------|

e|-----------------------------------------------------------------------------|
B|-|----3-3----------------------------|---------------------------------------|
G|-|----2-2------7-7------4-4------7-7-|---------------------------------------|
D|-|-000000--0555555--5222222--2555555-|---------------------------------------|
A|-|-000000--0555555--5222222--2555555-|-(4X)----------------------------------|
D|-|-000000--0555555--5222222--2555555-|---------------------------------------|

e|-----------------------------------------------------------------------------|
B|-----------------------------------------------------------------------------|
G|---------------7---7----------------7--7------7----7-------------------------|
D|--9999/7777/5555--55--59999/7777/5555-55--55555--5555------------------------|
A|--9999/7777/5555--55--59999/7777/5555-55--55555--5555------------------------|
D|--9999/7777/5555--55--59999/7777/5555-55--55555--5555------------------------|

e|--------------------------5--------------5------|----------------------------|
B|-|----3-3---------------------------------------|----------------------------|
G|-|----2-2-------4-4-----7-------------7---------|----------------------------|
D|-|-000000--02222222--55------555555--------5555-|-(4X)-----------------------|
A|-|-000000--02222222--55------555555--------5555-|----------------------------|
D|-|-000000--02222222--55------555555--------5555-|----------------------------|

e|-|-3330--0000000-|--------3330-|-000-0000-0000-|-----------------------------|
B|-|-0003--3333333-|--------0003-|-333-3333-3333-|-----------------------------|
G|-|-0002--2222222-|--(5X)--0002-|-222-2222-2222-|--(3X)-----------------------|
D|-|-0000--0000000-|--------0000-|-000-0000-0000-|-----------------------------|
A|-|-222-----------|--------222------------------------------------------------|
D|-----------------------------------------------------------------------------|
DDU UDUD DUDU

*Distortion guitar*
e|-----------------------------------------------------------------------------|
B|-----------------------------------------------------------------------------|
G|-----------------------------------------------------------------------------|
D|-0--0--0--5--555-55--0-0-0-7--777-77-------77777777-55555555-55555555-0------|
A|-0--0--0--5--555-55--0-0-0-7--777-77-(2X)--77777777-55555555-55555555-0------|
D|-0--0--0--5--555-55--0-0-0-7--777-77-------77777777-55555555-55555555-0------|
D  D  D  D  DUD DU  D D D D  DUD DU       DDDDDDUD DDDDDDUD DDDDDDUD D

*Distortion switched of* - Acoustic guitar
e|---------------------|---------------------5--|-------------------------------|
B|---------------------|------------------------|-------------------------------|
G|---------------------|---77777777-7777--7-----|-------------------------------|
D|--00000000-00000000--|--55555555-5555---------|-(5X)--55555555-5555-----------|
A|--00000000-00000000--|--55555555-5555---------|-------55555555-5555-----------|
D|--00000000-00000000--|--55555555-5555---------|-------55555555-5555-----------|
DDDDDDDD DDDDDDDD

e|--------------------------5--------------5------|----------------------------|
B|-|----3-3---------------------------------------|----------------------------|
G|-|----2-2-------4-4-----7-------------7---------|----------------------------|
D|-|-000000--02222222--55------555555--------5555-|-(4X)-----------------------|
A|-|-000000--02222222--55------555555--------5555-|----------------------------|
D|-|-000000--02222222--55------555555--------5555-|----------------------------|

In addition to Chords / Tabs Jimmy Eat World - Invented (Second Version), we offer an excerpt from a random book.- This is the doctor's plague: they sneeze, and mine is Pushkin's, no one sneezed there, but everyone drank and kissed.

LiveInternet