AllChordsTabs.com

Ligabue - Tutti Vogliono Viaggiare In Prima (First Version) Chords and Tabs


Artists:
Chords and Tabs » L » Ligabue - Tutti Vogliono Viaggiare In Prima (First Version)

Ligabue - Tutti Vogliono Viaggiare In Prima (First Version)

Ligabue - Tutti Vogliono Viaggiare In Prima (First Version) Chords / Tabs

Ligabue - Tutti Vogliono Viaggiare In Prima First Version: chords and tabs for the song. Watch chords and tablatures for all songs of the singer (group) Ligabue. Other chords and tabs for the "Tutti Vogliono Viaggiare In Prima" can find at the bottom of the page.

PROPS GO TO: Francesco "John" Capicotto

Ligabue
Tutti vogliono viaggiare in prima
"Fuori come va ?"

Intro,verse,chorus: F5 C5 G5 A5 C5
(For acoustic version play F C G Am C)

Guitar 1

e ---------------------------------------------------------|
B ---------------------------------------------------------|
G ---------------------------------------------------------|
D ---------------------------------------------------------|
A -33333333---1010101010101010---55555555---77777--1010----|
E -11111111----8-8-8-8-8-8-8-8---33333333---55555---8-8----|


Guitar 2

Verse

e ----------------------------------------------------------------------|
B ----------------------------------------------------------------------|
G ------------0--9--9--10-9-10------------------------------------------|
D -7--7-----10-----------------9--9-9-10-9-10-10-10---10-10--9-9-10-----|
A ------9/10------------------------------------------------------------|
E ----------------------------------------------------------------------|
Avrai ragione te a fare come.....


Chorus

e ---10-----10-------10-----10--------10------10--------10-----10-------|
B -13-----13-------13-----13--------13------13--------13---------13-----|
G ------12-----12-------12------12--------12------12-------12-------12--|
D ----------------------------------------------------------------------|
A ----------------------------------------------------------------------|
E ----------------------------------------------------------------------|

Verse

e ----------------------------|
B ----------------8---8-------|
G ----7-7-7-7-7-----5---5-----|
D --5-------------------------|
A ----------------------------|
E ----------------------------|
Quelli come me si va finche......


e ----------------------------------------------------------------------|
B ----------------------------------------------------------------------|
G ------------0--9--9--10-9-10------------------------------------------|
D -7--7-----10-----------------9--9-9-10-9-10-10-10---10-10--9-9-10-----|
A ------9/10------------------------------------------------------------|
E ----------------------------------------------------------------------|
Avrai ragione te a fare come.....



Chorus

e ---10-----10-------10-----10--------10------10--------10-----10-------|
B -13-----13-------13-----13--------13------13--------13---------13-----|
G ------12-----12-------12------12--------12------12-------12-------12--|
D ----------------------------------------------------------------------|
A ----------------------------------------------------------------------|
E ----------------------------------------------------------------------|


Solo

e ----------------------------------------------------------------------|
B ----------------------------------------------------------------------|
G ------------0--9--9--10-9-10------------------------------------------|
D -7--7-----10-----------------9--9-9-10-9-10-10-10---10-10--9-9-10-----|
A ------9/10------------------------------------------------------------|
E ----------------------------------------------------------------------|


e ---10-----10-------10-----10--------10------10--------10-----10-------|
B -13-----13-------13-----13--------13------13--------13---------13-----|
G ------12-----12-------12------12--------12------12-------12-------12--|
D ----------------------------------------------------------------------|
A ----------------------------------------------------------------------|
E ----------------------------------------------------------------------|



Outro
etc.
e -13-13-13-13-13-12-12-13-12-12-12-12-12-10-10-12-13-13-13-13-13-12-12-13-12-12-12-12-12-10---
B -13-13-13-13-13-13-13-13-13-13-13-13-13-13-13-13-13-13-13-13-13-13-13-13-13-13-13-13-13-13---
G ---------------------------------------------------------------------------------------
D ---------------------------------------------------------------------------------------
A ---------------------------------------------------------------------------------------
E ---------------------------------------------------------------------------------------

e -13---|
B -13---|
G ------|
D ------|
A ------|
E ------|

In addition to Chords / Tabs Ligabue - Tutti Vogliono Viaggiare In Prima (First Version), we offer an excerpt from a random book.These sculptures evoked much more pleasant emotions in her - old photographs came to life in her memories.

LiveInternet