AllChordsTabs.com

Maroon 5 - This Love (Third Version) Chords and Tabs


Artists:
Chords and Tabs » M » Maroon 5 - This Love (Third Version)

Maroon 5 - This Love (Third Version)

Maroon 5 - This Love (Third Version) Chords / Tabs

Maroon 5 - This Love Third Version: chords and tabs for the song. Watch chords and tablatures for all songs of the singer (group) Maroon 5. Other chords and tabs for the "This Love" can find at the bottom of the page.

-------------------------------------------------------------------------------
THIS LOVE - Maroon5
-------------------------------------------------------------------------------

Standard Tuning

Main Bass Riff
e|---------------------------------------------------------------------------|
B|---------------------------------------------------------------------------|
G|---------------------------------------------------------------------------|
D|---------------------------5---4---3--------3------------------------------|
A|---2------2---5---3-----------------------------6---5------------1---------|
E|-------------------------------------------------------------4-------------|

Or you can play it like this......
e|---------------------------------------------------------------------------|
B|---------------------------------------------------------------------------|
G|---------------------------------------------------------------------------|
D|---------------------------------------------------------------------------|
A|------------------------------10---9---8--------8---6---5------------------|
E|---7--------7---10---8-------------------------------------------4---6-----|

Verse 1:
G/B                        Cm                        Fm7/C
I was so high, I did not recognize the fire burning in her eyes
e|---7---------------------------8------------------------11-----------------|
B|---8---------------------------8------------------------9------------------|
G|---7---------------------------8------------------------8------------------|
D|---9---------------------------10-----------------------10-----------------|
A|---------------------------------------------------------------------------|
E|---------------------------------------------------------------------------|

G/B
The chaos that controlled my mind.__
e|--------------------------7------------------------------------------------|
B|--------------------------8------------------------------------------------|
G|--------------------------7------------------------------------------------|
D|--------------------------9------------------------------------------------|
A|---------------------------------------------------------------------------|
E|---------------------------------------------------------------------------|

The rest of the verse is the same thing.

Chorus:
Cm7                    Fm7                   Bb
This           love      has          taken   its

e|--8--8-----x--8----x--x---8-------8-----x--x---6---6----x----6-------------|
B|--8--8-----x--8----x--x---9-------9-----x--x---6---6----x----6-------------|
G|--8--8-----x--8----x--x---8-------8-----x--x---7---7----x----7-------------|
D|--10-10----x--10---x--x---10------8h10--x--x---8---8----x----8-------------|
A|---------------------------------------------------------------------------|
E|---------------------------------------------------------------------------|

Eb6
Toll            on     me.

e|--x---x---x---x---8------x---8---x---x-------------------------------------|
B|--x---x---x---x---8------x---8---x---x-------------------------------------|
G|--x---x---x---x---8------x---8---x---x-------------------------------------|
D|--x---x---x---x---8------x---8---x---x-------------------------------------|
A|---------------------------------------------------------------------------|
E|---------------------------------------------------------------------------|


The rest is the same until you get to the last bit of the chorus.
Cm                      F
I   have        no     choice            'cause

e|---8---8---x---8---x---x---------------------------------------------------|
B|---8---8---x---8---x---x---10---x---x---10--10--10--10---------------------|
G|---8---8---x---8---x---x---10---x---x---10--10--10--10---------------------|
D|---10--10--x---10--x---x---10---x---x---10--10--10--10---------------------|
A|---------------------------8----x---x---8---8---8---8----------------------|
E|---------------------------------------------------------------------------|


I  won't  say       "Good-bye"   any-           more.

e|---8---8---8---8----x---x---x---x---7------x---7---x---x-------------------|
B|---9---9---9---9----x---x---x---x---8------x---8---x---x-------------------|
G|---8---8---8---8----x---x---x---x---7------x---7---x---x-------------------|
D|---10--10--10--10---x---x---x---x---9------x---9---x---x-------------------|
A|---------------------------------------------------------------------------|
E|---------------------------------------------------------------------------|

The next verse and chorus are the same as the first.

Bridge:  The chords in the bridge are just strummed once and then let ring out for the next 3 beats.

Fm7                              Ebmaj7
I'll fix these broken things,   repair your broken wings

e|---8-------------------------------6---------------------------------------|
B|---9-------------------------------8---------------------------------------|
G|---8-------------------------------7---------------------------------------|
D|---10------------------------------8---------------------------------------|
A|---8-------------------------------6---------------------------------------|
E|---------------------------------------------------------------------------|

G/B                          Cm
And make sure everything's alright

e|---7----------------------------8------------------------------------------|
B|---8----------------------------8------------------------------------------|
G|---7----------------------------8------------------------------------------|
D|---9----------------------------10-----------------------------------------|
A|---------------------------------------------------------------------------|
E|---------------------------------------------------------------------------|

Fm7                        Ebmaj7
My pressure on your hips,  sinking my finger tips into

e|---8--------------------------6--------------------------------------------|
B|---9--------------------------8--------------------------------------------|
G|---8--------------------------7--------------------------------------------|
D|---10-------------------------8--------------------------------------------|
A|---8--------------------------6--------------------------------------------|
E|---------------------------------------------------------------------------|

G7
Every inch of you because I know that's what you want me to do.

e|---3----------------------------3------------------------------------------|
B|---6----------------------------6------------------------------------------|
G|---4----------------------------4------------------------------------------|
D|---3----------------------------3------------------------------------------|
A|---5----------------------------5------------------------------------------|
E|---3----------------------------3------------------------------------------|

That's it, I think, just fade out with the chorus after that.  E-mail me with any comments.  Peace.


| /  slide up
|   slide down
| h  hammer-on
| p  pull-off
| ~  vibrato
| +  harmonic
| x  Mute note

In addition to Chords / Tabs Maroon 5 - This Love (Third Version), we offer an excerpt from a random book.“New Year,” he says, “if I wasn't very cheerful, then at least very lively.

LiveInternet