AllChordsTabs.com

Lifehouse - You And Me (Third Version) Chords and Tabs


Artists:
Chords and Tabs » L » Lifehouse - You And Me (Third Version)

Lifehouse - You And Me (Third Version)

Lifehouse - You And Me (Third Version) Chords / Tabs

Lifehouse - You And Me Third Version: chords and tabs for the song. Watch chords and tablatures for all songs of the singer (group) Lifehouse. Other chords and tabs for the "You And Me" can find at the bottom of the page.

tuning: standard

Hello people!!!! this is my first tab. plz rate this, and email suggestions/comments to
plz! Hope u like the tab!

(*note1- repeat verse once)
(**note2- strum all notes a few times except stared ones and ones with (2) over them.
stared ones once quickly and strum ones with (2) over them twice as much as normal ones.)

strumming pattern: down, down up down up

ORDER:
Intro
verse 1 (x2)
Chorus
Verse 2 (x2)
Chorus
bridge
Chorus (x2)
ending (verse 1 once)

Intro
*
E----3-------3-------3-------3-------3-------3-------3--3---3---|
B----3-------3-------3-------3-------3-------3-------3--3---3---|
G----0-------0-------0-------0-------0-------2-------0--0---0---|
D----0-------0-------0-------0-------2-------0-------0--0---0---|
A----x-------3-------x-------2-------2-------0-------3--2---3---|
E----3-------0-------2-------0-------0-------2-------0--0---0---|

Verse 1

E----3-----------3-------3-----------3-------|
B----3-----------3-------3-----------3-------|
G----0-----------0-------0-----------0-------|
D----0-----------0-------0-----------0-------|
A----x-----------3-------x-----------2-------|
E----3-----------X-------2-----------x-------|
what day is it,     and in what month
I can't keep up and  I can't back down

*
E---------3-----------3--------3--3-----3--|
B---------3-----------3--------3--3-----3--|
G---------0-----------2--------0--0-----0--|
D---------2-----------0--------0--0-----0--|
A---------2-----------0--------3--2-----3--|
E---------0-----------2--------0--0-----0--|
this clock never seemed so alive
I've been losing      so much time (play last note leading up to chorus)

Chorus:
(2)
E-----------3-------3-------3------------|
B-----------3-------3-------3------------|
G-----------0-------0-------0------------|
D-----------0-------2-------0------------|
A-----------x-------0-------3------------|
E-----------3-------0-------0------------|
cause its you and me and all other people

E--------3----------3-----3--------3-------|
B--------3----------3-----3--------3-------|
G--------0----------0-----0--------2-------|
D--------2----------0-----2--------0-------|
A--------2----------x-----2--------0-------|
E--------0----------3-----0--------2-------|
with nothing to do, nothing to lose(switch lose w/ prove in 2nd chorus)

E-----------3-------3-------3----------------|
B-----------3-------3-------3----------------|
G-----------0-------0-------0----------------|
D-----------0-------0-------0----------------|
A-----------x-------3-------3----------------|
E-----------3-------x-------0----------------|
and it's you and me and all other people

E--------3------------3------3----------------3----------3------|
B--------3------------3------3----------------3----------3------|
G--------0------------0------0----------------2----------0------|
D--------2------------0------2----------------0----------x------|
A--------2------------x------2----------------0----------3------|
E--------0------------3------0----------------2----------x------|
And I don't know why,   I can't keep my eyes off of you.

Verse 2

E----3-----------3-------3-----------3-------|
B----3-----------3-------3-----------3-------|
G----0-----------0-------0-----------0-------|
D----0-----------0-------0-----------0-------|
A----x-----------3-------x-----------2-------|
E----3-----------x-------2-----------x-------|
All of the things     I want to say
I'm tripping on words, You got my head spinning

*
E---------3-----------3--------3--3-----3--|
B---------3-----------3--------3--3-----3--|
G---------0-----------2--------0--0-----0--|
D---------2-----------0--------0--0-----0--|
A---------2-----------0--------3--2-----3--|
E---------0-----------2--------0--0-----0--|
just arent coming out right
I don't know where to go from here


Bridge (verse part, but different lyrics)
-3---------------3----------3-------------3-|
-3---------------3----------3-------------3-|
-0---------------0----------0-------------0-|
-0---------------0----------0-------------0-|
-0---------------3----------0-------------2-|
-3---------------0----------2-------------0-|
There's something about you now

-3-------------------3--------------3--3-3-|
-3-------------------3--------------3--3-3-|
-0-------------------2--------------0--0-0-|
-2-------------------0--------------0--0-0-|
-2-------------------0--------------3--2-3-|
-0-------------------3--------------0--0-0-|
That I can't quite figure  out

---------------------------------0-|
-1-------------------------------3-|
-2-------------------------------2-|
-2-------------------------------0-|
-----------------------------------|
-----------------------------------|
everything she does is beautiful

--------------------------------0-|
-1------------------------------3-|
-2------------------------------2-|
-2------------------------------0-|
----------------------------------|
----------------------------------|
everything she does is right

Ending: Play verse once (let last note ring)

In addition to Chords / Tabs Lifehouse - You And Me (Third Version), we offer an excerpt from a random book.Got it? Hans and Collier complied with the request of the Confectioner and caught a whole bag of songbirds in the forest.

LiveInternet