AllChordsTabs.com

Joan Jett - I Want You (First Version) Chords and Tabs


Artists:
Chords and Tabs » J » Joan Jett - I Want You (First Version)

Joan Jett - I Want You (First Version)

Joan Jett - I Want You (First Version) Chords / Tabs

Joan Jett - I Want You First Version: chords and tabs for the song. Watch chords and tablatures for all songs of the singer (group) Joan Jett. Other chords and tabs for the "I Want You" can find at the bottom of the page.

[Intro]

(Guitar 1 & Guitar 2)

E E E E E E E E
e|----------------|
B|----------------|
G|9-9-9-9-9-9-9-9-|
D|9-9-9-9-9-9-9-9-|  (x8)
A|7-7-7-7-7-7-7-7-|
E|----------------|
1 & 2 & 3 & 4 &

[Verse]

(Guitar 1 & Guitar 2)

E E D E  E E D E
e|--------|--------|
B|--------|--------|
G|9-9-7-9-|9-9-7-9-|
D|9-9-7-9-|9-9-7-9-|
A|7-7-5-7-|7-7-5-7-|
E|--------|--------|
1 2 3 4  1 2 3 4

E E E E E E E E  D D D D D D D D
e|----------------|----------------|
B|----------------|----------------|
G|9-9-9-9-9-9-9-9-|7-7-7-7-7-7-7-7-|
D|9-9-9-9-9-9-9-9-|7-7-7-7-7-7-7-7-|
A|7-7-7-7-7-7-7-7-|5-5-5-5-5-5-5-5-|
E|----------------|----------------|
1 & 2 & 3 & 4 &  1 & 2 & 3 & 4 &

E E D E  E E D E
e|--------|--------|
B|--------|--------|
G|9-9-7-9-|9-9-7-9-|
D|9-9-7-9-|9-9-7-9-|
A|7-7-5-7-|7-7-5-7-|
E|--------|--------|
1 2 3 4  1 2 3 4

E E E E E E E E  D D D D D D D D
e|----------------|----------------|
B|----------------|----------------|
G|9-9-9-9-9-9-9-9-|7-7-7-7-7-7-7-7-|
D|9-9-9-9-9-9-9-9-|7-7-7-7-7-7-7-7-|
A|7-7-7-7-7-7-7-7-|5-5-5-5-5-5-5-5-|
E|----------------|----------------|
1 & 2 & 3 & 4 &  1 & 2 & 3 & 4 &

[Chorus]

(Guitar 1)

E     B     A     G#     G     G
e|------------------------|------------------------|
B|------------------------|------------------------|
G|9-9-9-------------------|------------------------|
D|9-9-9-9-9-9-7-7-7-6-6-6-|5--5--5-5-5-5--5--5-5-5-|  (x2)
A|7-7-7-9-9-9-7-7-7-6-6-6-|5--5--5-5-5-5--5--5-5-5-|
E|------7-7-7-5-5-5-4-4-4-|3--3--3-3-3-3--3--3-3-3-|
1     2     3     4      1     2     3     4

(Guitar 2)

E     B     A     G#     G
e|------------------------|------------------------|
B|------------------------|------------------------|
G|9-9-9-------------------|5--5--7-7-7-7--7--7-7-7-|
D|9-9-9-9-9-9-7-7-7-6-6-6-|5--5--5-5-5-5--5--5-5-5-|  (x2)
A|7-7-7-9-9-9-7-7-7-6-6-6-|------------------------|
E|------7-7-7-5-5-5-4-4-4-|------------------------|
1     2     3     4      1     2     3     4

[Bridge]

(Guitar 1 & Guitar 2)

E E E E E E E E
e|----------------|
B|----------------|
G|9-9-9-9-9-9-9-9-|
D|9-9-9-9-9-9-9-9-|  (x8)
A|7-7-7-7-7-7-7-7-|
E|----------------|
1 & 2 & 3 & 4 &

[Verse]

(Guitar 1 & Guitar 2)

E E D E  E E D E
e|--------|--------|
B|--------|--------|
G|9-9-7-9-|9-9-7-9-|
D|9-9-7-9-|9-9-7-9-|
A|7-7-5-7-|7-7-5-7-|
E|--------|--------|
1 2 3 4  1 2 3 4

E E E E E E E E  D D D D D D D D
e|----------------|----------------|
B|----------------|----------------|
G|9-9-9-9-9-9-9-9-|7-7-7-7-7-7-7-7-|
D|9-9-9-9-9-9-9-9-|7-7-7-7-7-7-7-7-|
A|7-7-7-7-7-7-7-7-|5-5-5-5-5-5-5-5-|
E|----------------|----------------|
1 & 2 & 3 & 4 &  1 & 2 & 3 & 4 &

E E D E  E E D E
e|--------|--------|
B|--------|--------|
G|9-9-7-9-|9-9-7-9-|
D|9-9-7-9-|9-9-7-9-|
A|7-7-5-7-|7-7-5-7-|
E|--------|--------|
1 2 3 4  1 2 3 4

E E E E E E E E  D D D D D D D D
e|----------------|----------------|
B|----------------|----------------|
G|9-9-9-9-9-9-9-9-|7-7-7-7-7-7-7-7-|
D|9-9-9-9-9-9-9-9-|7-7-7-7-7-7-7-7-|
A|7-7-7-7-7-7-7-7-|5-5-5-5-5-5-5-5-|
E|----------------|----------------|
1 & 2 & 3 & 4 &  1 & 2 & 3 & 4 &

[Chorus]

(Guitar 1)

E     B     A     G#     G     G
e|------------------------|------------------------|
B|------------------------|------------------------|
G|9-9-9-------------------|------------------------|
D|9-9-9-9-9-9-7-7-7-6-6-6-|5--5--5-5-5-5--5--5-5-5-|  (x2)
A|7-7-7-9-9-9-7-7-7-6-6-6-|5--5--5-5-5-5--5--5-5-5-|
E|------7-7-7-5-5-5-4-4-4-|3--3--3-3-3-3--3--3-3-3-|
1     2     3     4      1     2     3     4

(Guitar 2)

E     B     A     G#     G
e|------------------------|------------------------|
B|------------------------|------------------------|
G|9-9-9-------------------|5--5--7-7-7-7--7--7-7-7-|
D|9-9-9-9-9-9-7-7-7-6-6-6-|5--5--5-5-5-5--5--5-5-5-|  (x2)
A|7-7-7-9-9-9-7-7-7-6-6-6-|------------------------|
E|------7-7-7-5-5-5-4-4-4-|------------------------|
1     2     3     4      1     2     3     4

[Bridge]

(Guitar 1 & Guitar 2)

E E E E E E E E
e|----------------|
B|----------------|
G|9-9-9-9-9-9-9-9-|
D|9-9-9-9-9-9-9-9-|  (x8)
A|7-7-7-7-7-7-7-7-|
E|----------------|
1 & 2 & 3 & 4 &

[Break]

E E E
e|--------|
B|--------|
G|1-1-1---|
D|2-2-2---|  (x12)
A|2-2-2---|
E|0-0-0---|
1 2 3 4

[Chorus]

(Guitar 1)

E     B     A     G#     G     G
e|------------------------|------------------------|
B|------------------------|------------------------|
G|9-9-9-------------------|------------------------|
D|9-9-9-9-9-9-7-7-7-6-6-6-|5--5--5-5-5-5--5--5-5-5-|  (x2)
A|7-7-7-9-9-9-7-7-7-6-6-6-|5--5--5-5-5-5--5--5-5-5-|
E|------7-7-7-5-5-5-4-4-4-|3--3--3-3-3-3--3--3-3-3-|
1     2     3     4      1     2     3     4

(Guitar 2)

E     B     A     G#     G
e|------------------------|------------------------|
B|------------------------|------------------------|
G|9-9-9-------------------|5--5--7-7-7-7--7--7-7-7-|
D|9-9-9-9-9-9-7-7-7-6-6-6-|5--5--5-5-5-5--5--5-5-5-|  (x2)
A|7-7-7-9-9-9-7-7-7-6-6-6-|------------------------|
E|------7-7-7-5-5-5-4-4-4-|------------------------|
1     2     3     4      1     2     3     4

[Bridge]

(Guitar 1 & Guitar 2)

E E E E E E E E
e|----------------|
B|----------------|
G|9-9-9-9-9-9-9-9-|
D|9-9-9-9-9-9-9-9-|  (x4)
A|7-7-7-7-7-7-7-7-|
E|----------------|
1 & 2 & 3 & 4 &

[Break]

E E E
e|--------|
B|--------|
G|1-1-1---|
D|2-2-2---|  (x4)
A|2-2-2---|
E|0-0-0---|
1 2 3 4

[Chorus]

(Guitar 1)

E     B     A     G#     G     G
e|------------------------|------------------------|
B|------------------------|------------------------|
G|9-9-9-------------------|------------------------|
D|9-9-9-9-9-9-7-7-7-6-6-6-|5--5--5-5-5-5--5--5-5-5-|  (x2)
A|7-7-7-9-9-9-7-7-7-6-6-6-|5--5--5-5-5-5--5--5-5-5-|
E|------7-7-7-5-5-5-4-4-4-|3--3--3-3-3-3--3--3-3-3-|
1     2     3     4      1     2     3     4

(Guitar 2)

E     B     A     G#     G
e|------------------------|------------------------|
B|------------------------|------------------------|
G|9-9-9-------------------|5--5--7-7-7-7--7--7-7-7-|
D|9-9-9-9-9-9-7-7-7-6-6-6-|5--5--5-5-5-5--5--5-5-5-|  (x2)
A|7-7-7-9-9-9-7-7-7-6-6-6-|------------------------|
E|------7-7-7-5-5-5-4-4-4-|------------------------|
1     2     3     4      1     2     3     4

[Outro]

(Guitar 1 & Guitar 2)

E E E E E E E E
e|----------------|
B|----------------|
G|9-9-9-9-9-9-9-9-|
D|9-9-9-9-9-9-9-9-|  (x3)
A|7-7-7-7-7-7-7-7-|
E|----------------|
1 & 2 & 3 & 4 &

E
e|--|
B|--|
G|9-|
D|9-|
A|7-|
E|--|

In addition to Chords / Tabs Joan Jett - I Want You (First Version), we offer an excerpt from a random book.But the jamb smolders evenly, You pull your lips to it, You think that I am arrogantly holding myself with you.

LiveInternet