AllChordsTabs.com

Joe Satriani - Ghosts (First Version) Chords and Tabs


Artists:
Chords and Tabs » J » Joe Satriani - Ghosts (First Version)

Joe Satriani - Ghosts (First Version)

Joe Satriani - Ghosts (First Version) Chords / Tabs

Joe Satriani - Ghosts First Version: chords and tabs for the song. Watch chords and tablatures for all songs of the singer (group) Joe Satriani. Other chords and tabs for the "Ghosts" can find at the bottom of the page.

"(Live)
(Intro)
-------------------------------------------------------------------------------
Ghosts (Live) - Joe Satriani
-------------------------------------------------------------------------------

Tuning:

e|---------------------------------------------------------------------------|
B|---------------------------------------------------------------------------|
G|--7-7-7---6-6-6---3-3-3----------7-7-7---6-6-6---3-3-3------x-------------|
D|--7-7-7---6-6-6---3-3-3----------7-7-7---6-6-6---3-3-3------x-------------|
A|--5-5-5---4-4-4---1-1-1----------5-5-5---4-4-4---1-1-1------x-------------|
E|-------------------------0-0-0---------------------------------------------|
[ 3 Times ]       [                  2 Times                        ]
e|---------------------------------------------------------------------------|
B|---------------------------------------------------------------------------|
G|---------------------------------------------------------------------------|
D|----2-0-2------2---8-9----------8-9---------8-9----------------------------|
A|--1----------1----------11-10-------11-10--------11-10---7--8--7--7--------|
E|-0---------0---------------------------------------------------------------|

e|---------------------------------------------------------------------------|
B|---------------------------------------------------------------------------|
G|--------------------------------8-9--------8-9-----------------------------|
D|-------------------------------------11-10------11-10----8-9---------------|
A|---9-10----------9-10-----------------------------------------11-10--------|
E|--------12-11-8-------12-11-8----------------------------------------------|
(w/ bar)
e|-------------------------------------------------------------------/19-18~|
B|---------------------------------------------------------------------------|
G|--------------------------------------7-7-7---6-6-6---3-3-3----/x---------|
D|-8-9--------8-9-----------------------7-7-7---6-6-6---3-3-3----/x---------|
A|-----11-10------11-10---7-8-7-7-------5-5-5---4-4-4---1-1-1----/x---------|
E|---------------------------------------------------------------/x---------|
[                     2 Times                         ]
e|-------6-7---------6-7---------6~--6-7------------------------14-15-14-12--|
B|--/x-------9-8---8-----9-8---8----------9-8-----5h6p5-5--5~----------------|
G|--/x------------------------------------------7----------------------------|
D|--/x-----------------------------------------------------------------------|
A|--/x-----------------------------------------------------------------------|
E|---------------------------------------------------------------------------|

e|-0-0--14-15-14-12-0-12-0-12-0-11-0-11-0-11-8-0-11-0-11-0-8-0-8-0-8-0--6-7--|
B|---------------------------------------------------------------------------|
G|---------------------------------------------------------------------------|
D|---------------------------------------------------------------------------|
A|---------------------------------------------------------------------------|
E|---------------------------------------------------------------------------|
(trill)
e|--4-3-0-0--6-7-4-0(3)-----6-7-3-2----0h1p0--0-0-0--------------------------|
B|----------------------------------------------------/x--/x---------------|
G|----------------------------------------------------/x--/x----13~--15~---|
D|----------------------------------------------------/x--/x---------------|
A|---------------------------------------------------------------------------|
E|---------------------------------------------------------------------------|

e|-------------------------------------------------------15~--17~--17b19~----|
B|-------13~--15~--13~--13/15--15/17~----17-17-16~--18~----------------------|
G|---------------------------------------------------------------------------|
D|---------------------------------------------------------------------------|
A|---------------------------------------------------------------------------|
E|---------------------------------------------------------------------------|

e|---17b19~-----------------------------------------------/15----------------|
B|-----------/x\---------12-12-13~---15h17-17-17-15h17~-------13~--13~-x---|
G|-----------/x\---14~-------------------------------------------------x---|
D|-----------/x\-------------------------------------------------------x---|
A|---------------------------------------------------------------------------|
E|---------------------------------------------------------------------------|

e|------------20b22--20~-20~------------19b20--19br20--19-19~----------------|
B|------------------------------x-------------------------------------------|
G|------------------------------x-------------------------------------------|
D|------------------------------x-------------------------------------------|
A|---------------------------------------------------------------------------|
E|---------------------------------------------------------------------------|
(              dip down 1 whole step w/ bar      )
e|-------------------------------------------15--17--17/19---19-19~-21b24~---|
B|---------13--15--13-15--15/17-----16--18-----------------------------------|
G|-13--15--------------------------------------------------------------------|
D|---------------------------------------------------------------------------|
A|---------------------------------------------------------------------------|
E|---------------------------------------------------------------------------|
( dip w/bar )
e|--555555---788888---10121212-101212121212---/15-------------------20b22----|
B|--------------------------------------------------13--1313131313-----------|
G|---------------------------------------------------------------------------|
D|---------------------------------------------------------------------------|
A|---------------------------------------------------------------------------|
E|---------------------------------------------------------------------------|

e|--20~-20~-20~--x---17b19~-17b19~-17b19~--17br19~--17~--17~--x------------|
B|---------------x--------------------------------------------x------------|
G|---------------x--------------------------------------------x------------|
D|---------------------------------------------------------------------------|
A|---------------------------------------------------------------------------|
E|---------------------------------------------------------------------------|

e|---------------------------------------------------------------------------|
B|---------------------------------------------------------------------------|
G|--7-7-7---6-6-6---3-3-3-------------------------------/x---/x\------------|
D|--7-7-7---6-6-6---3-3-3-------------------------------/x---/x\------------|
A|--5-5-5---4-4-4---1-1-1--------------------------------/x--/x\------------|
E|----------------------------0-0-0------------------------------------------|
("Ghost Noise", then solo)
e|---------------------------------------------------------------------------|
B|---------------------------------------------------------------------------|
G|---------------------------------------------------------------------------|
D|---------2----0-2----------2----0-2----------2---0-2---------2-------------|
A|-----1-----------------1-----------------1----------------1----------------|
E|--0-----------------0-----------------0----------------0-------------------|


************************************

| /   slide up
|    slide down
| h   hammer-on
| p   pull-off
| ~   vibrato
| +   harmonic
| x   Mute note
| b   Bend
| pb  Pre-bend
| br  Bend release
| pbr Pre-bend release
| brb Bend release bend

************************************
"

In addition to Chords / Tabs Joe Satriani - Ghosts (First Version), we offer an excerpt from a random book.It said: Sub pretextu juris summum jus saepe summa injuria.

LiveInternet