AllChordsTabs.com

Marilyn Manson - Deformography (First Version) Chords and Tabs


Artists:
Chords and Tabs » M » Marilyn Manson - Deformography (First Version)

Marilyn Manson - Deformography (First Version)

Marilyn Manson - Deformography (First Version) Chords / Tabs

Marilyn Manson - Deformography First Version: chords and tabs for the song. Watch chords and tablatures for all songs of the singer (group) Marilyn Manson. Other chords and tabs for the "Deformography" can find at the bottom of the page.

Dif.: 7

Drop D

Intro - No guitar

Verse (Guitar 1 comes in after Manson says “Fall in too hard..”)
A|----------------------------------------------|
D|--9-9--------8-8-----------2--2----0--2--5----|

Verse Part 2 (“I fell into you...”) (Gtr. 1)
D|--2-2---2-2-2--|
A|--2-2---2-2-2--|
D|--2-2---2-2-2--|

Verse Part 3 (Gtr. 2) (“I lift you up....”)
D|--9-9-----8-8------2-2---0-2-5--|
A|--9-9-----8-8------2-2---0-2-5--|
D|--9-9-----8-8------2-2---0-2-5--|

Chorus (Gtr. 1)
G|--999999999999--555--|
D|--999999999999--555--|
A|--777777777777--333--|

Bridge 1 (Gtr. 1)
D|--7-7-7-7-7---7-7-7-7-7-5-5-5--|
A|--7-7-7-7-7---7-7-7-7-7-5-5-5--|
D|--7-7-7-7-7---7-7-7-7-7-5-5-5--|

Break (While Manson sings “You are the one I want...” 3x then gtr 1 comes in with this....

Bridge 2 (Gtr. 1)
A|----------------------------|
D|--0-2-2-2-5---2-2-0--2-2-2--|
pm------------------------|

Outro (Gtr. 1) (“I am the one I want....”)
D|--0--------1----------2\\---|
A|--0--------1----------2\\---|
D|--0--------1----------2\\---|
Let each note ring out * a long slide

Structre:
Intro - no guitar
Verse Part 1 (Gtr. 1) (“Fall in too hard...”)
Verse Part 2 (Gtr. 1) (“I fell into you...”)
Verse Part 2 (Gtr. 1)/Verse Part 3 (Gtr. 2) (“I lift you up....”)
Chorus (Gtr. 1)
Verse Part 2 (Gtr. 1)/Verse Part 3 (Gtr. 2)
Chorus (Gtr. 1)
Bridge 1 (Gtr. 1)
Break (“You are the one I want...” 3x)
Bridge 2 (Gtr. 1)
Bridge 2 (Gtr. 1)/Verse Part 3 (Gtr. 2)
Chorus (Gtr. 1)/Verse Part 1 (Gtr. 2)
Outro (Gtr. 1)

In addition to Chords / Tabs Marilyn Manson - Deformography (First Version), we offer an excerpt from a random book.Let the dregs flow down for a moment - You cannot cross out the cute pattern.

LiveInternet