AllChordsTabs.com

Lenny Kravitz - Fear (First Version) Chords and Tabs


Artists:
Chords and Tabs » L » Lenny Kravitz - Fear (First Version)

Lenny Kravitz - Fear (First Version)

Lenny Kravitz - Fear (First Version) Chords / Tabs

Lenny Kravitz - Fear First Version: chords and tabs for the song. Watch chords and tablatures for all songs of the singer (group) Lenny Kravitz. Other chords and tabs for the "Fear" can find at the bottom of the page.

another-only-tab-on-the-net-song from me,i like this song so much i tabbed it
out for the benefit of you,the people,one day this na........................
great song, check this *** out! and please rate it!



intro verse-with wah [these are the only chords needed]
--8-------8-------10------9----------------------------------------------------
--7-------7-------9-------8----------------------------------------------------
--6-------6-------8-------7----------------------------------------------------
--7-------7-------9-------8----------------------------------------------------

chorus-distortion
----------------------0--2b-2b-0-------------------------------------------------
-------------0--1--2-------------2-------2--3--4--5--------4--5--6--[7]----------
-0--2--3--4---------------------------3--------------3--5-----------/------------
[only play this note right before the verse]

solo-distortion:
------------------------------------------------------------12h14-14-14b-14b---
-------------------------------------12h14h15-------12h14h15-------------------
-12b13---10--10~-------------12h13h14------------------------------------------
-----------12--------12h13h14--------------------------------------------------


-------------------------------------------------------------12-15b-15b-12-15b-
-14b-14b-12------------------------------------------12h14h15------------------
-14b-14b-12--------------12br----------------12h13h14--------------------------
-----------------------12------------12h13h14----------------------------------
---------------12h13h14--------------------------------------------------------


-12-17b-15br----------------------------17b-17p15---------------
-------------17~--14-14-14s15---------------------17-15-17b-----
------------------14-14-14s15-----------------------------------

the phat lick
-14-12-14br----------12-14brp12---------------------------------12-14-14brp12--
------------12h13h14-----------12h14-12h14p12h14--------12h13h14---------------
------------------------------------------------12h13h14-----------------------


-----------------------14-16-17-17b--------
------------------14h16--------------------
----------12-14s16-------------------------
-12h13h14----------------------------------
-------------------------------------------
-------------------------------------------

In addition to Chords / Tabs Lenny Kravitz - Fear (First Version), we offer an excerpt from a random book.Knee-length skirt, long-sleeved blouse, moderate cosmetics.

LiveInternet