AllChordsTabs.com

Kinks - Till The End Of The Day (First Version) Chords and Tabs


Artists:
Chords and Tabs » K » Kinks - Till The End Of The Day (First Version)

Kinks - Till The End Of The Day (First Version)

Kinks - Till The End Of The Day (First Version) Chords / Tabs

Kinks - Till The End Of The Day First Version: chords and tabs for the song. Watch chords and tablatures for all songs of the singer (group) Kinks. Other chords and tabs for the "Till The End Of The Day" can find at the bottom of the page.

This song has pretty easy chords, the only thing that may need a little practice is the
rhythm, since it is pretty fast at some parts,
and maybe the solo (which I'm not 100% sure I got right, but it's the best I could do
it :p), but overall it's a fun, easy song to play.


Chords used:

E A D G B e
D   X X 0 2 3 2
C   X 3 2 0 1 0
A   X 0 2 2 2 0
F   1 3 3 2 1 1


Intro:

D-C-A...

C D F C D
Baby I feel good
C D F C D
C   D   F
Feel good from morning
C          C D F C D
Till the end of the day
C D F C D
Till the end of the day


D       C     F
Yeah, you and me
C            D      C      F     C
We live this life
D              C
F    A
Till we go sleep at night
D               C
You and me we're free
F           C
We do as we please, yeah
C  D  F           C          C D F C D
C D F C D
Till the end of the day


D     C   F
Yeah, I get up
C         D     C    F   C
And I see the sun up
D           C    F
And I feel good, yeah
C          F     A
cause my life has begun
D               C
You and me we're free
F           C
We do as we please, yeah
C  D  F           C          D       C
D        C
Till the end of the day
D        C
Till the end of the day
D        C
Till the end of the day

e|----10--8/10--10--10--108---10--8---1513---17---171013---8/10---10-|
B|-----------------------------------------------------------------------|
G|-----------------------------------------------------------------------|
D|-----------------------------------------------------------------------|
A|-----------------------------------------------------------------------|
E|-----------------------------------------------------------------------|

e|--108-----------------------------------------------------------------|
B|---------10-------6-----10----10--103---6--3--8-------------6-3--6----|
G|--------------7---------------------------------------5/7--------------|
D|-----------------------------------------------------------------------|
A|-----------------------------------------------------------------------|
E|-----------------------------------------------------------------------|

e|-8--10--15--13--10-----------------------------------------------------|
B|-----------------------------------------------------------------------|
G|-----------------------------------------------------------------------|
D|-----------------------------------------------------------------------|
A|-----------------------------------------------------------------------|
E|-----------------------------------------------------------------------|

D               C
You and me we're free
F           C
We do as we please, yeah
C  D  F           C          D       C
D        C
Till the end of the day
D        C
Till the end of the day
D        C
Till the end of the day
D        C
Till the end of the day
D        C     B    A    D
Till the end of the day

In addition to Chords / Tabs Kinks - Till The End Of The Day (First Version), we offer an excerpt from a random book.Only self-interest measures the whole (essence) by the piece given to it.

LiveInternet