AllChordsTabs.com

King Crimson - Pictures Of A City (First Version) Chords and Tabs


Artists:
Chords and Tabs » K » King Crimson - Pictures Of A City (First Version)

King Crimson - Pictures Of A City (First Version)

King Crimson - Pictures Of A City (First Version) Chords / Tabs

King Crimson - Pictures Of A City First Version: chords and tabs for the song. Watch chords and tablatures for all songs of the singer (group) King Crimson. Other chords and tabs for the "Pictures Of A City" can find at the bottom of the page.

|Intro (twice)
e||--------------------------------------------------|
B||------------------------13------15-13-11-13-11-10-|
G||12------14------15--------------------------------|
D||--------------------------------------------------|
A||--------------------------------------------------|
E||--------------------------------------------------|
|
|
e||------------------------15------|
B||----------------------15--------|
G||12------14------15--------------|
D||--------------------------------|
A||--------------------------------|
E||--------------------------------|


|Main theme
e||----------------|----------------|----------------|----------------|
B||----------------|----------------|----------------|----------------|
G||----------------|----------------|----------------|----------------|
D||----------------|----------------|----------------|----------------|
A||------1-----3---|--4-----3---1---|------5-----4---|3---1-----------|
E||3--23-----3-----|3-----3---------|3--23-----3-----|--------1---2---|
|
|
e||----------------|----------------|----------------|----------------|
B||----------------|----------------|----------------|----------------|
G||----------------|----------------|----------------|----------------|
D||----------------|----------------|----------------|----------------|
A||------1-----3---|--4-----3---1---|------5-----4---|3-------1---2---|
E||3--23-----3-----|3-----3---------|3--23-----3-----|----3-----------|
|
|
e||----------------|----------------|----------------|----------------|
B||----------------|----------------|----------------|----------------|
G||----------------|----------------|------------3---|----------------|
D||------2-----4---|--5-----4---2---|------5---------|5-4---2---------|
A||3--23-----3-----|3-----3---------|3--23-----3-----|--------3---1---|
E||----------------|----------------|----------------|----------------|
|
|
e||----------------|----------------|----------------|----------------|
B||----------------|----------------|----------------|----------------|
G||----------------|----------------|----------------|----------------|
D||----------------|----------------|----------------|----------------|
A||------1-----3---|--4-----3---1---|------5-----4---|3-------1---3---|
E||3--23-----3-----|3-----3---------|3--23-----3-----|----3-----------|
|
|
e||----------------|----------------|----------------|--------1513----|
B||----------------|----------------|--------13------|----------------|
G||--------11------|--------14------|----------------|--------1210----|
D||12--------------|10--------------|8---------------|7---------------|
A||----------------|----------------|----------------|----------------|
E||----------------|----------------|----------------|----------------|
|
|
e||----------------|----------------|----------------|----------------|
B||----------------|----------------|----------------|----------------|
G||----------------|----------------|----------------|----------------|
D||----------------|----------------|----------------|----------------|
A||------1-----3---|--4-----3---1---|------5-----4---|3-------1---2---|
E||3--23-----3-----|3-----3---------|3--23-----3-----|----3-----------|
|
|
e||----------------|----------------|----------------|----------------|
B||----------------|----------------|----------------|----------------|
G||--------3-------|----------------|-----3----------|----------------|
D||----------------|----3---------3-|45--------------|----------------|
A||3--45-------3--4|5-------3--45---|----------------|----------------|
E||----------------|----------------|----------------|----------------|


|Verses
e||----------------|----------------|----------------|----------------|
B||----------------|----------------|----------------|----------------|
G||----------------|----------------|----------------|----------------|
D||----------------|----------------|----------------|----------------|
A||--------4-------|3-------1-------|3--3----3--5---5|----------------|
E||3---------------|----------------|1--1----1--3---3|----------------|


|The ascending part, starts on Bb and ends on Bb (10b=bend to 11, etc.)
e||6-------7-------|etc-------------|----------------|----------------|
B||10b-----11b-----|----------------|----------------|----------------|
G||----------------|----------------|----------------|----------------|
D||----------------|----------------|----------------|----------------|
A||----------------|----------------|----------------|----------------|
E||----------------|----------------|----------------|----------------|


|Second section (twice)
e||------------------------|------------------------|
B||------------------------|------------------------|
G||------------3-----3-4-5-|------------3-----------|
D||5-5-5-4-5-5---5-5-------|5-5-5-4-5-5---5-5-4-3---|
A||------------------------|----------------------5-|
E||------------------------|------------------------|
|
|
e||------------------------|------------------------|
B||------------------------|6---6---6---6---6---6-7-|
G||------------3-----3-4-5-|--6---6---6---6---6-----|
D||5-5-5-4-5-5---5-5-------|------------------------|
A||------------------------|------------------------|
E||------------------------|------------------------|
|
|
e||------------6-----6-7-8-|------------6-----------|
B||8-8-8-7-8-8---8-8-------|8-8-8-7-8-8---8-8-7-6---|
G||------------------------|----------------------5-|
D||------------------------|------------------------|
A||------------------------|------------------------|
E||------------------------|------------------------|
|
|
e||------------6-----9-8-6-|------------------------|
B||8-8-8-7-8-8---8-8-------|8-8-8-7-8-8-8-8-8-7-8-8-|
G||------------------------|------------------------|
D||------------------------|------------------------|
A||------------------------|------------------------|
E||------------------------|------------------------|
|
|
e||13------12--------------|11------10--------------|
B||----------------8-7-8-8-|----------------8-7-8-8-|
G||------------------------|------------------------|
D||------------------------|------------------------|
A||------------------------|------------------------|
E||------------------------|------------------------|
|
|
e||------------------------|13------12--------------|
B||7-8-8-7-8-8-7-8-8-7-8-8-|----------------8-7-8-8-|
G||------------------------|------------------------|
D||------------------------|------------------------|
A||------------------------|------------------------|
E||------------------------|------------------------|
|
|
e||11------10--------------|9-------8---------------|
B||----------------8-7-8-8-|----------------8-7-8-8-|
G||------------------------|------------------------|
D||------------------------|------------------------|
A||------------------------|------------------------|
E||------------------------|------------------------|
|
|
e||------------------------|
B||11----------------------|
G||----------11------------|
D||------------------------|
A||------------------------|
E||------------------------|

|Fast part
e||------------------------|------------------------|
B||------------------------|------3-----------------|
G||------3----5---6--5--3--|----------6-5--3--------| x2
D||3-4-5----5---5--5-------|3-4-5---5---------3--4--|
A||------------------------|------------------------|
E||------------------------|------------------------|
|
|
e||------------------------|------------------------|
B||-----------7---8--7-----|------8---118-----------|
G||------9--------------9--|---------------11-9-----|
D||8-910----10--10-10------|8-910---10-----------10-|
A||------------------------|------------------------|
E||------------------------|------------------------|
|
|
e||------------------------|------------------------|
B||------------------------|------3-----------------|
G||------3----5---6--5--3--|----------6-5-----3--5--|
D||3-4-5----5---5--5-------|3-4-5---5------5--------|
A||------------------------|------------------------|
E||------------------------|------------------------|
|
|
e||------------------8-----|------14---------(6)----|
B||-----(7)----------------|------------------------|
G||7-----7-----5-----------|3-----------2-----------|
D||------------------------|------------------------|
A||------------------------|------------------------|
E||------------------------|------------------------|
|
|
e||------------------------|------------------------|
B||------------------------|------3-----------------|
G||------3----5---6--5--3--|----------6-5-----3--4--|
D||3-4-5----5---5--5-------|3-4-5---5------5--------|
A||------------------------|------------------------|
E||------------------------|------------------------|
|
|
e||--------------------------------|--------------------------------|
B||--------11----------------------|------11------------------------|
G||--------------------10--------10|1112----------------------------|
D||101112------101112------101112--|--------------------------------|
A||--------------------------------|--------------------------------|
E||--------------------------------|--------------------------------|


e||1515-1515-1515-1515-15-15-|1515-1515-1515-1515-15-15-|
B||--------------------------|--------------------------|
G||1212-1212-1212-1212-12-12-|1212-1212-1212-1212-12-12-|x2
D||--------------------------|--------------------------|
A||--------------------------|--------------------------|
E||--------------------------|--------------------------|
|
|
e||1414-1414-1414-1414-14-14-|1414-1414-1414-1414-14-14-|
B||--------------------------|--------------------------|
G||1111-1111-1111-1111-11-11-|1111-1111-1111-1111-11-11-|
D||--------------------------|--------------------------|
A||--------------------------|--------------------------|
E||--------------------------|--------------------------|
|
|
e||1515-1515-1515-1515-15-15-|1515-1515-1515-1515-15-15-|
B||--------------------------|--------------------------|
G||1212-1212-1212-1212-12-12-|1212-1212-1212-1212-12-12-|
D||--------------------------|--------------------------|
A||--------------------------|--------------------------|
E||--------------------------|--------------------------|
|
|
e||------------------8-----|------14----------------|
B||------7-----------------|------------------------|
G||7-----------5-----------|3-----------2-----------|
D||------------------------|------------------------|
A||------------------------|------------------------|
E||------------------------|------------------------|
|
|
e||------------------------|------------------------|
B||------------------------|------3-----------------|
G||------3----5---6--5--3--|----------6-5-----3--4--|
D||3-4-5----5---5--5-------|3-4-5---5------5--------|
A||------------------------|------------------------|
E||------------------------|------------------------|
|
|
e||--------------------------------|--------------------------------|
B||--------11----------------------|------11------------------------|
G||--------------------10--------10|1112----------------------------|
D||101112------101112------101112--|--------------------------------|
A||--------------------------------|--------------------------------|
E||--------------------------------|--------------------------------|
|
|
e||------------------------|------------------------|
B||------------------------|------3-----------------|
G||------3----5------------|----------6-------------| x2
D||3-4-5----5--------------|3-4-5---5---------------|
A||------------------------|------------------------|
E||------------------------|------------------------|
|
|
e||------------------------|------------------------|
B||-----------7------------|------11--10------------|
G||------9-----------------|------------------------|
D||8-910----10-------------|8-910---10--------------|
A||------------------------|------------------------|
E||------------------------|------------------------|
|
|
e||------------------------|------------------------|
B||------------------------|------3-----------------|
G||------3----5------------|----------6-------------|
D||3-4-5----5--------------|3-4-5---5---------------|
A||------------------------|------------------------|
E||------------------------|------------------------|
|
|
e||------------------------|------------------------|
B||-----------9------------|----------7-------------|
G||------11----------------|------9-----------------|
D||101112---12-------------|8-9-10--10--------------|
A||------------------------|------------------------|
E||------------------------|------------------------|
|
|
e||------------------------|------------------------|
B||------------------------|------3-----------------|
G||------3----5------------|----------6-------------|
D||3-4-5----5--------------|3-4-5---5---------------|
A||------------------------|------------------------|
E||------------------------|------------------------|
|
|
e||--------------------------------|--------------------------------|
B||--------11----------------------|------11------------------------|
G||--------------------10--------10|1112----------------------------|
D||101112------101112------101112--|--------------------------------|
A||--------------------------------|--------------------------------|
E||--------------------------------|--------------------------------|

In addition to Chords / Tabs King Crimson - Pictures Of A City (First Version), we offer an excerpt from a random book.Just - why was he staring at me? Because of the weekend? Oh, what nonsense.

LiveInternet