AllChordsTabs.com

Linkin Park - By Myself (First Version) Chords and Tabs


Artists:
Chords and Tabs » L » Linkin Park - By Myself (First Version)

Linkin Park - By Myself (First Version)

Linkin Park - By Myself (First Version) Chords / Tabs

Linkin Park - By Myself First Version: chords and tabs for the song. Watch chords and tablatures for all songs of the singer (group) Linkin Park. Other chords and tabs for the "By Myself" can find at the bottom of the page.

Tabbed by ear, so in no way is this 100% accurate. I just didn't feel like
the other tabs on this sight justified the song so I'm trying my hand at it.
==============================================
[Intro]
==============================================
D#|----------------------------------------------------------------|
A#|----------------------------------------------------------------|
F#|--------2-2-------------2-2-------------2-2-------------2-2-----|
C#|0-0-0-0-2-2--5*-0-0-0-0-2-2--5*-0-0-0-0-2-2--5*-0-0-0-0-2-2--5*-|
G#|0-0-0-0-0-0--5*-0-0-0-0-0-0--5*-0-0-0-0-0-0--5*-0-0-0-0-0-0--5*-|
C#|1-1-1-1---------1-1-1-1---------1-1-1-1---------1-1-1-1---------|
P P P P         P P P P         P P p P         P P P P


(Last one before verse 1)

D#|----------------------------------------------------------------|
A#|----------------------------------------------------------------|
F#|----------------------------------------------------------------|
C#|0-0-0-0---------------------------------------------------------|
G#|0-0-0-0---------------------------------------------------------|
C#|1-1-1-1---------------------------------------------------------|
P P P P

On every tab i've seen on this sight they
play the C# G# C# strings all on the first fret
and I personally don't hear it that way
and the harmonic that rings there i found watching the
live dvd, so basically that glitch noise in the studio
version is either a pedal or just an effect on the track.


==============================================
[Verse 1]
==============================================

This part is only played once in the verse and its played at (0:27)
right at the end of "do i trust nobody and live in loneliness".

D#|----------------------------------------------------------------|
A#|----------------------------------------------------------------|
F#|----------------------------------------------------------------|
C#|0-0-0-0---------------------------------------------------------|
G#|0-0-0-0---------------------------------------------------------|
C#|1-1-1-1---------------------------------------------------------|
P P P P

==============================================
Pre Chorus:
==============================================
D#|----------------------------------------------------------------|
A#|----------------------------------------------------------------|
F#|--------2-2-------------2-2-------------2-2-------------2-2-----|
C#|0-0-0-0-2-2--5*-0-0-0-0-2-2--5*-0-0-0-0-2-2--5*-0-0-0-0-2-2--5*-|
G#|0-0-0-0-0-0--5*-0-0-0-0-0-0--5*-0-0-0-0-0-0--5*-0-0-0-0-0-0--5*-|
C#|1-1-1-1---------1-1-1-1---------1-1-1-1---------1-1-1-1---------|
P P P P         P P P P         P P p P         P P P P


(As soon as you finish these last 4 strums it instantly goes into
the chorus)

D#|----------------------------------------------------------------|
A#|----------------------------------------------------------------|
F#|----------------------------------------------------------------|
C#|0-0-0-0---------------------------------------------------------|
G#|0-0-0-0---------------------------------------------------------|
C#|1-1-1-1---------------------------------------------------------|
P P P P

==============================================
[Chorus]
==============================================


D#|----------------------------------------------------------------|
A#|----------------------------------------------------------------|
F#|-2~-----------------2~------------------------------------------|
C#|-2~----3-x-x--0-x-x-2~----3-x-x--0-x-x--------------------------|
G#|-0~----3-x-x--0-x-x-0~----3-x-x--0-x-x--------------------------|
C#|-------3-x-x--0-x-x-------3-x-x--0-x-x--------------------------|


D#|----------------------------------------------------------------|
A#|----------------------------------------------------------------|
F#|-2~-----------------2~------------------------------------------|
C#|-2~----3-x-x--0-x-x-2~----3-x-x--0-x-x--------------------------|
G#|-0~----3-x-x--0-x-x-0~----3-x-x--0-x-x--------------------------|
C#|-------3-x-x--0-x-x-------3-x-x--0-x-x--------------------------|

==============================================
[Verse 2]
==============================================

Theres no guitar in this verse

==============================================
Pre Chorus:
==============================================
D#|----------------------------------------------------------------|
A#|----------------------------------------------------------------|
F#|--------2-2-------------2-2-------------2-2-------------2-2-----|
C#|0-0-0-0-2-2--5*-0-0-0-0-2-2--5*-0-0-0-0-2-2--5*-0-0-0-0-2-2--5*-|
G#|0-0-0-0-0-0--5*-0-0-0-0-0-0--5*-0-0-0-0-0-0--5*-0-0-0-0-0-0--5*-|
C#|1-1-1-1---------1-1-1-1---------1-1-1-1---------1-1-1-1---------|
P P P P         P P P P         P P p P         P P P P

(As soon as you finish these last 4 strums it instantly goes into
the chorus)

D#|----------------------------------------------------------------|
A#|----------------------------------------------------------------|
F#|----------------------------------------------------------------|
C#|0-0-0-0---------------------------------------------------------|
G#|0-0-0-0---------------------------------------------------------|
C#|1-1-1-1---------------------------------------------------------|
P P P P

==============================================
[Chorus]
==============================================


D#|----------------------------------------------------------------|
A#|----------------------------------------------------------------|
F#|-2~-----------------2~------------------------------------------|
C#|-2~----3-x-x--0-x-x-2~----3-x-x--0-x-x--------------------------|
G#|-0~----3-x-x--0-x-x-0~----3-x-x--0-x-x--------------------------|
C#|-------3-x-x--0-x-x-------3-x-x--0-x-x--------------------------|


D#|----------------------------------------------------------------|
A#|----------------------------------------------------------------|
F#|-2~-----------------2~------------------------------------------|
C#|-2~----3-x-x--0-x-x-2~----3-x-x--0-x-x--------------------------|
G#|-0~----3-x-x--0-x-x-0~----3-x-x--0-x-x--------------------------|
C#|-------3-x-x--0-x-x-------3-x-x--0-x-x--------------------------|


==============================================
Bridge Part 1:
==============================================

D#|----------------------------------------------------------------|
A#|----------------------------------------------------------------|
F#|--------2-2------------2-2--------------2-2-------------2-2-----|
C#|0-0-0-0-2-2----0-0-0-0-2-2------0-0-0-0-2-2-----0-0-0-0-2-2-----|
G#|0-0-0-0-0-0----0-0-0-0-0-0------0-0-0-0-0-0-----0-0-0-0-0-0-----|
C#|1-1-1-1---------1-1-1-1---------1-1-1-1---------1-1-1-1---------|
P P P P         P P P P         P P p P         P P P P


D#|----------------------------------------------------------------|
A#|----------------------------------------------------------------|
F#|--------2-2-------------2-2-------------2-2---------------------|
C#|0-0-0-0-2-2-----0-0-0-0-2-2-----0-0-0-0-2-2---------------------|
G#|0-0-0-0-0-0-----0-0-0-0-0-0-----0-0-0-0-0-0---------------------|
C#|1-1-1-1---------1-1-1-1---------1-1-1-1-------------------------|
P P P P         P P P P         P P p P

==============================================
Bridge Part 2:
==============================================

D#|----------------------------------------------------------------|
A#|----------------------------------------------------------------|
F#|2-2--------------2-2----------2-2-2----------2-2----------------|
C#|2-2-5*-0-0-0-0-2-2-5*-0-0-0-0-2-2-5*-0-0-0-0-2-2-5*-------------|
G#|0-0-5*-0-0-0-0-0-0-5*-0-0-0-0-0-0-5*-0-0-0-0-0-0-5*-------------|
C#|-------1-1-1-1--------1-1-1-1--------1-1-1-1--------------------|
P P P P        P P P P        P P P P

D#|----------------------------------------------------------------|
A#|----------------------------------------------------------------|
F#|--------2-2-------------2-2-------------2-2-------------2-2-----|
C#|0-0-0-0-2-2--5*-0-0-0-0-2-2--5*-0-0-0-0-2-2--5*-0-0-0-0-2-2--5*-|
G#|0-0-0-0-0-0--5*-0-0-0-0-0-0--5*-0-0-0-0-0-0--5*-0-0-0-0-0-0--5*-|
C#|1-1-1-1---------1-1-1-1---------1-1-1-1---------1-1-1-1---------|
P P P P         P P P P         P P p P         P P P P
D#|----------------------------------------------------------------|
A#|----------------------------------------------------------------|
F#|----------------------------------------------------------------|
C#|0-0-0-0---------------------------------------------------------|
G#|0-0-0-0---------------------------------------------------------|
C#|1-1-1-1---------------------------------------------------------|
P P P P

==============================================
[Chorus]
==============================================


D#|----------------------------------------------------------------|
A#|----------------------------------------------------------------|
F#|-2~-----------------2~------------------------------------------|
C#|-2~----3-x-x--0-x-x-2~----3-x-x--0-x-x--------------------------|
G#|-0~----3-x-x--0-x-x-0~----3-x-x--0-x-x--------------------------|
C#|-------3-x-x--0-x-x-------3-x-x--0-x-x--------------------------|


D#|----------------------------------------------------------------|
A#|----------------------------------------------------------------|
F#|-2~-----------------2~------------------------------------------|
C#|-2~----3-x-x--0-x-x-2~----3-x-x--0-x-x--------------------------|
G#|-0~----3-x-x--0-x-x-0~----3-x-x--0-x-x--------------------------|
C#|-------3-x-x--0-x-x-------3-x-x--0-x-x--------------------------|

D#|----------------------------------------------------------------|
A#|----------------------------------------------------------------|
F#|-2~-----------------2~------------------------------------------|
C#|-2~----3-x-x--0-x-x-2~----3-x-x--0-x-x--------------------------|
G#|-0~----3-x-x--0-x-x-0~----3-x-x--0-x-x--------------------------|
C#|-------3-x-x--0-x-x-------3-x-x--0-x-x--------------------------|


D#|----------------------------------------------------------------|
A#|----------------------------------------------------------------|
F#|-2~-----------------2~------------------------------------------|
C#|-2~----3-x-x--0-x-x-2~----3-x-x--0-x-x--------------------------|
G#|-0~----3-x-x--0-x-x-0~----3-x-x--0-x-x--------------------------|
C#|-------3-x-x--0-x-x-------3-x-x--0-x-x--------------------------|

In addition to Chords / Tabs Linkin Park - By Myself (First Version), we offer an excerpt from a random book.The first of May was drawing to a close, and I decided not to go out further than the hotel restaurant.

LiveInternet