AllChordsTabs.com

Kings Of Leon - Conversation Piece (First Version) Chords and Tabs


Artists:
Chords and Tabs » K » Kings Of Leon - Conversation Piece (First Version)

Kings Of Leon - Conversation Piece (First Version)

Kings Of Leon - Conversation Piece (First Version) Chords / Tabs

Kings Of Leon - Conversation Piece First Version: chords and tabs for the song. Watch chords and tablatures for all songs of the singer (group) Kings Of Leon. Other chords and tabs for the "Conversation Piece " can find at the bottom of the page.

[Intro]
e|-------------------------------------------------------------------------------------|
B|-----9-------9-------9---------10--------9-------9-------9---------10----------12----|
G|---9---9---9---9---9---9----11----11---9---9---9---9---9---9----11----11----13----13-|
D|-9-------9-------9-------11----------9-------9-------9-------11----------13----------|
A|-------------------------------------------------------------------------------------|
E|-------------------------------------------------------------------------------------|

e|-------------------------------------------------------------------------------------|
B|----12-------------10----------10--------9-------9-------9-------10------------------|
G|-------13-------11----11----11----11---9---9---9---9---9---9---11---11---------------|
D|-13-------13-11----------11----------9-------9-------9-------11----------------------|
A|-------------------------------------------------------------------------------------|
E|-------------------------------------------------------------------------------------|

[Verse]
Take me back to California         To those crystal neon signs
e|-------------------------------------------------------------------------|
B|-----9-------9-------9---------10--------9-------9-------9---------10----|
G|---9---9---9---9---9---9----11----11---9---9---9---9---9---9----11----11-|
D|-9-------9-------9-------11----------9-------9-------9-------11----------|
A|-------------------------------------------------------------------------|
E|-------------------------------------------------------------------------|

The traveling sensation                     I'm blinded by the light
e|-------------------------------------------------------------------------------------|
B|-------12----------12----------10----------10--------9-------9-------9---------10----|
G|----13----13----13----13----11----11----11----11---9---9---9---9---9---9----11----11-|
D|-13----------13----------11----------11----------9-------9-------9-------11----------|
A|-------------------------------------------------------------------------------------|
E|-------------------------------------------------------------------------------------|

There are eyes on every corner     Bloated brains and rotten smiles
e|-------------------------------------------------------------------------|
B|-----9-------9-------9---------10--------9-------9-------9---------10----|
G|---9---9---9---9---9---9----11----11---9---9---9---9---9---9----11----11-|
D|-9-------9-------9-------11----------9-------9-------9-------11----------|
A|-------------------------------------------------------------------------|
E|-------------------------------------------------------------------------|

There are coats of many colors
e|-------------------------------------------------|
B|-------12----------12----------14----------14----|
G|----13----13----13----13----14----14----14----14-|
D|-13----------13----------14----------14----------|
A|-------------------------------------------------|
E|-------------------------------------------------|

Flying high up in the sky
e|-------------------------------------------------------------|
B|-------10----------10--------9-------9-------9---------10----|
G|----11----11----11----11---9---9---9---9---9---9----11----11-|
D|-11----------11----------9-------9-------9-------11----------|
A|-------------------------------------------------------------|
E|-------------------------------------------------------------|

[Chorus]
Won't you come 'round my way, for some conversation, please?
Won't you come 'round my way, it's a conversation piece
e|-------------------------------------------------------------------------------------|
B|-------12----------12----------14----------14--------9-------9-------9---------10----|
G|----13----13----13----13----14----14----14----14---9---9---9---9---9---9----11----11-|  X2
D|-13----------13----------14----------14----------9-------9-------9-------11----------|
A|-------------------------------------------------------------------------------------|
E|-------------------------------------------------------------------------------------|

[Verse]
Look at all these shattered faces
e|-------------------------------------------------------------------------|
B|-----9-------9-------9---------10--------9-------9-------9---------10----|
G|---9---9---9---9---9---9----11----11---9---9---9---9---9---9----11----11-|
D|-9-------9-------9-------11----------9-------9-------9-------11----------|
A|-------------------------------------------------------------------------|
E|-------------------------------------------------------------------------|

They all look so out of place          They've got nothing left to live for
e|-------------------------------------------------------------------------------------|
B|-----9-------9-------9---------10----------12----------12----------14----------14----|
G|---9---9---9---9---9---9----11----11----13----13----13----13----14----14----14----14-|
D|-9-------9-------9-------11----------13----------13----------14----------14----------|
A|-------------------------------------------------------------------------------------|
E|-------------------------------------------------------------------------------------|

They'll be dead before they wait
e|-------------------------------------------------------------|
B|-------10----------10--------9-------9-------9---------10----|
G|----11----11----11----11---9---9---9---9---9---9----11----11-|
D|-11----------11----------9-------9-------9-------11----------|
A|-------------------------------------------------------------|
E|-------------------------------------------------------------|

I'd love to know just what you're thinking, Tell me what I ought to do
e|-------------------------------------------------------------------------|
B|-----9-------9-------9---------10--------9-------9-------9---------10----|
G|---9---9---9---9---9---9----11----11---9---9---9---9---9---9----11----11-|
D|-9-------9-------9-------11----------9-------9-------9-------11----------|
A|-------------------------------------------------------------------------|
E|-------------------------------------------------------------------------|

I will never leave you lonely
e|-------------------------------------------------|
B|-------12----------12----------14----------14----|
G|----13----13----13----13----14----14----14----14-|
D|-13----------13----------14----------14----------|
A|-------------------------------------------------|
E|-------------------------------------------------|

You're the one I'm runnin' to
e|-------------------------------------------------------------|
B|-------10----------10--------9-------9-------9---------10----|
G|----11----11----11----11---9---9---9---9---9---9----11----11-|
D|-11----------11----------9-------9-------9-------11----------|
A|-------------------------------------------------------------|
E|-------------------------------------------------------------|

Get me out of California        Take me off into the blue
e|------------------------------------------------------------------|
B|-----2-----2----------4-----4---------5-----5---------4-----4-----|
G|-------2-----2----------4-----4---------6-----6---------4-----4---|
D|---2----------------4---------------6-----------6---4-------------|
A|-0-------0-----0--2-------2-----2-4-------4-------2-------2-----2-|
E|------------------------------------------------------------------|

We could make it out together    To the place that's calling you
e|------------------------------------------------------------------|
B|-----2-----2----------4-----4---------5-----5---------4-----5-4---|
G|-------2-----2----------4-----4---------6-----6---------4-------4-|
D|---2----------------4---------------6-----------6---4-------------|
A|-0-------0-----0--2-------2-----2-4-------4-------2-------2-------|
E|------------------------------------------------------------------|

[Chorus]
Won't you come around my way,   for some conversation, please?
e|-----------------------------------------------------------------|
B|-----2-------2-------4-------4-------5-----5---------4-----5-4---|
G|-------2-------2-------4-------4-------6-----6---------4-------4-|
D|---2-------2-------4-------4-------6-----------6---4-------------|
A|-0-------0-------2-------2-------4-------4-------2-------2-------|
E|-----------------------------------------------------------------|

Won't you come around my way,  it's a conversation piece
e|---------------------------------------------------------------------|
B|-----2-------2-------4-------4-------9-------9-------9---------10----|
G|-------2-------2-------4-------4---9---9---9---9---9---9----11----11-|
D|---2-------2-------4-------4-----9-------9-------9-------11----------|
A|-0-------0-------2-------2-------------------------------------------|
E|---------------------------------------------------------------------|

[Bridge]
e|-------------------------------------|
B|-----9-------9-------9---------10----|
G|---9---9---9---9---9---9----11----11-| x5
D|-9-------9-------9-------11----------|
A|-------------------------------------|
E|-------------------------------------|

[Chorus]
Won't you come around my way, for some conversation, please?
e|-------------------------------------------------------------------------------------|
B|-------12----------12----------14----------14--------9-------9-------9---------10----|
G|----13----13----13----13----14----14----14----14---9---9---9---9---9---9----11----11-|
D|-13----------13----------14----------14----------9-------9-------9-------11----------|
A|-------------------------------------------------------------------------------------|
E|-------------------------------------------------------------------------------------|

Won't you come around my way, for some conversation, please?
e|-----------------------------------------------------------------|
B|-----2-------2-------4-------4-------5-----5---------4-----5-4---|
G|-------2-------2-------4-------4-------6-----6---------4-------4-|
D|---2-------2-------4-------4-------6-----------6---4-------------|
A|-0-------0-------2-------2-------4-------4-------2-------2-------|
E|-----------------------------------------------------------------|

Won't you come around my way, it's a conversation piece
e|---------------------------------------------------------------------|
B|-----2-------2-------4-------4-------9-------9-------9---------10----|
G|-------2-------2-------4-------4---9---9---9---9---9---9----11----11-|
D|---2-------2-------4-------4-----9-------9-------9-------11----------|
A|-0-------0-------2-------2-------------------------------------------|
E|---------------------------------------------------------------------|

[Outro]
e|-------------------------------------|
B|-----9-------9-------9---------10----|
G|---9---9---9---9---9---9----11----11-| x5
D|-9-------9-------9-------11----------|
A|-------------------------------------|
E|-------------------------------------|

In addition to Chords / Tabs Kings Of Leon - Conversation Piece (First Version), we offer an excerpt from a random book.I heard about female domination from Max back in 1911, before any German and civil wars.

LiveInternet