AllChordsTabs.com

Joe Satriani - Hill Of The Skull (First Version) Chords and Tabs


Artists:
Chords and Tabs » J » Joe Satriani - Hill Of The Skull (First Version)

Joe Satriani - Hill Of The Skull (First Version)

Joe Satriani - Hill Of The Skull (First Version) Chords / Tabs

Joe Satriani - Hill Of The Skull First Version: chords and tabs for the song. Watch chords and tablatures for all songs of the singer (group) Joe Satriani. Other chords and tabs for the "Hill Of The Skull" can find at the bottom of the page.

HILL OF THE SKULL
As recorded by Joe Satriani
(From the 1987 Album SURFING WITH THE ALIEN)

Music by Joe Satriani

E5                   G5                  Cmaj7                 D5
0 2 2 x x x          3 5 5 x x x          x 3 5 4 x x          x 5 7 7 x x

A5                   B5                    B                   F5
5 7 7 x x x          7 x 4 4 x x          7 6 4 x x x          1 3 3 x x x

F#5              E5(type 2)               C5                   G/B
2 4 4 x x x          0 2 2 4 5 x          x 3 5 5 x x          x 2 5 4 x x

E5(type 3)              E7/G#                B5II                   F
0 2 2 4 x x          4 x 2 4 3 x          x 2 4 4 x x          1 3 3 2 1 x

E5(type 4)                E
0 7 9 9 x x          0 2 2 1 0 0

Q=60
E5    G5      Cmaj7   D5      A5       G5
4/4
Gtr III
|     |       |       |       |        |
/     /       /       /       /        /

Gtrs I, II
~~~~~~~~~~~~~~~~      ~~~~~~~~~~       ~~
|-------19----|-19---20-17----|-17---19-15---------|
|-17----------|---------------|--------------19-17--|
|--------4----|--4----5--2----|--2----4-------------|
|--2----------|---------------|-----------5---4--2--|
|-------------|---------------|---------------------|
|-------------|---------------|---------------------|


B5     B     E5     G5       Cmaj7   F5          F#5            A5
|    |       |      |       |       |            |             |
/    /       /      /       /       /            /             /

1      |
~~~~~~~~~~~~~~~~~~~~~~~~~~~~~~
|-/19--------|--------/19----|-19---20-17--(17)--|-(17)-x/-/18----17---/19-20-|
|------------|-17-----------|-------------------|------x/-----19-------------|
|--/4--------|---------/4----|--4----5--2---(2)--|--(2)-----/3-----2----/4--5-|
|------------|--2-----------|-------------------|------x/------4-------------|
|------------|---------------|-------------------|------x/--------------------|
|------------|---------------|-------------------|----------------------------|


B5    B  A5 G5               F5           E5(type 2)     D5
|    |  |    |               |             |              |
/    /  /    /               /             /              /

1______/
~~~~~~~~~~~~~~~~             ~~                           ~~~
|-19--------|-(19)--19---22b24-17---(17)--|-(17)--15-15s19-14--/17-15-14-|
|-----------|-----------------------------|-------------------------------|
|--4--------|--(4)---4-4s=9---------------|-------------------------------|
|-----------|-------------------7----(7)--|--(7)---5--5s=9--4---/7--5--4-|
|-----------|-----------------------------|-------------------------------|
|-----------|-----------------------------|-------------------------------|


C5   GA5    B5        B          E5(type 2) E7/G#
|   ||       |        |           |          |
/   //       /        /           /          /

~~~~~~~~~~~~~~~~~~~~~~~~~~~~~~~~~~~~~~~~
|-----------|-/22b24----22b23----|-/22b24=====(22)r-----20b22-20-|
|-17--------|--------------------|------------------/17----------|
|-----------|--------------------|----------------------/7-----5-|
|-----------|--------------------|-------------------------------|
|--7--------|--/7--------6-------|--/7---------(7)---/7----------|
|-----------|--------------------|-------------------------------|


A5      C5
|       |
/       /

~~~~
|-(20)----(20)---------19b20-19-|
|--------------17s15------------|
|--(5)-----(5)-------4S=5-----4-|
|-------------------------------|
|---------------7s=5------------|
|-------------------------------|


B5II    C5                      F     B5II
|       |                      |      |
/       /                      /      /

~~~~                           ~~
|-(19)----(19)---------17b19-17-|-17----(17)-------15b17-15-|
|--------------15s13------------|------------13s12----------|
|--(4)-----(4)-------2s=4-----2-|--2-----(2)----------------|
|-------------------------------|------------------/7-----5-|
|---------------5s=3------------|-------------3s=2----------|
|-------------------------------|---------------------------|


E5(type D5
|       |
/       /

~~~~
|-(15)----(15)/-------20b22-20-|
|---------------17------------|
|-------------------5s=7-----5-|
|--(5)-----(5)-----------------|
|----------------/7------------|
|------------------------------|


C5     GA5                    B5      B
|    |  |                     |       |
/    /  /                     /       /

~~~~
|-(20)----(20)-------19b20-19-|-(19)----(19)--------------|
|--------------19s17----------|------------------17s19-17-|
|--(5)-----(5)--------5-----4-|--(4)-----(4)-16----------|
|-----------------------------|-------------------2s=4--2-|
|-----------------7----------|---------------2----------|
|-----------------------------|---------------------------|


C5           D5               E5(type 4)   D5
|             |                |          |
/             /                /          /

2.5/                          2/      1/   1/
~~~~             ~~~~~~~~~~
|-----------------------------|-------22b24---------------|
|-17--(17)-----(17)--17s19-17-|-(17)-----------17b19-17---|
|-----------------------------|---------------------------|
|--2---(2)------(2)---2s=4--2-|--(2)---7------------------|
|-----------------------------|-----------------9-----7---|
|-----------------------------|---------------------------|


Free Time
C5            B5II           E
|           |               |
/           /               /

2/       2____/      2.5/
~~~~~~~~~~~                 ~~~~~~
|-------22b24===============||===========|
|-(17)------------19---(19)-||-17--------|
|---------------------------||-----------|
|---------------------------||-----------|
|--(7)---7---------9----(9)-||--7--------|
|---------------------------||-----------|


Gtr IV
1.5/   1.5/   1.5/   1.5/   1.5/   1.5/         1.5/
|----------------------------------------------------------------------------:
|----------------------------------------------------------------------------:
|-----<2>------(<2>)---(<2>)---(<2>)---(<2>)---(<2>)---(<2>)---------(<2>)---:
|---x------------------------------------------------------------------------:
|-x--------------------------------------------------------------------------:
|----------------------------------------------------------------------------:

1.5/   1.5/   1.5/   1.5/
--------------------------------:
--------------------------------:
-(<2>)---(<2>)---(<2>)---(<2>)--:
--------------------------------:
--------------------------------:
--------------------------------:

|
| Gtr V
|                                        /2     2.5____________/
|-------------------------------------------------------------------------------------------------:
|-------------------------------------------------------------------------------------------------:
|----------<2>-(<2>)-------------------(<2>)---(<2>)-----------(<2>)---------(<2>)----------------:
|-------------------------------------------------------------------------------------------------:
|-------------------------------------------------------------------------------------------------:
|-------------------------------------------------------------------------------------------------:


1/   2                           1.5/   7/
~~~~~
|----------------------------------------------------------|
|----------------------------------------------------------|
|----------<2>--(<2>)------------------------(<2>)---(<2>)-|
|--------x-------------------------------------------------|
|------x---------------------------------------------------|
|----------------------------------------------------------|
|
|  /1                       4____|     1
|                            ~~~~~~~~~~
|----------------------------------------------------------|
|----------------------------------------------------------|
|-<4>-----------------(<4>)-<2>--(<2>)-(<2>)---------------|
|----------------------------------------------------------|
|----------------------------------------------------------|
|----------------------------------------------------------|


2.5                 1.5/   1.5/  1/   3.5____/             7
|--------------------------------------------------------------|----------*|
|--------------------------------------------------------------|----------*|
|-<2>------------(<2>)-<3>----(<3>)---<4>--(<4>)---(<4>)-(<4>)-|-(<4>)----*|
|--------------------------------------------------------------|----------*|
|--------------------------------------------------------------|----------*|
|--------------------------------------------------------------|----------*|
|
|  /1   /2  7                       2____________/     7
|--------------------------------------------------------------|----------*|
|--------------------------------------------------------------|----------*|
|--------------------------------------------------------------|----------*|
|--------------------------------------------------------------|----------*|
|--------------------------------------------------------------|----------*|
|--0----(0)--(0)-----------------------0------------(0)---(0)--|--(0)-----*|



***************************************************************************************
***************************************************************************************

In addition to Chords / Tabs Joe Satriani - Hill Of The Skull (First Version), we offer an excerpt from a random book.A swarm of masks flew over their heads - the evil spirits tried to take his soul for themselves before initiation.

LiveInternet