AllChordsTabs.com

Marillion - Just For The Record (First Version) Chords and Tabs


Artists:
Chords and Tabs » M » Marillion - Just For The Record (First Version)

Marillion - Just For The Record (First Version)

Marillion - Just For The Record (First Version) Chords / Tabs

Marillion - Just For The Record First Version: chords and tabs for the song. Watch chords and tablatures for all songs of the singer (group) Marillion. Other chords and tabs for the "Just For The Record" can find at the bottom of the page.

                                          Artist - Marillion
********************
Song - Just For The Record
****************************
Album - Clutching At Straws
*****************************
**********************


INTRO - KEYBOARD - D C D C D C Bm G
******
---------------------------------------------------------
00:10
VERSE 1
********
A          G                  A          G
Many's the time I've been thinking about changing my ways
I'm serving a sentence to write life's sentences
[--br------|-------------|--br-------|-------------]
[-14-------|-------------|-14--------|-------------]
[----14-12-|-11-12-14-14-|-----14-12-|-11-12-------]
[----------|-------------|-----------|-------12-12-]
[----------|-------------|-----------|-------------]
[----------|-------------|-----------|-------------]

A                   G              A                G
But when it gets right down to it it's the same drunken haze
It's only when I'm out of it I make sense of it.
br
[--br------|-------------|--br-------|--------12--]
[-14-------|-------------|-14--------|------------]
[----14-12-|-11-12-14-14-|-----14-12-|-11-12------]
[----------|-------------|-----------|------------]
[----------|-------------|-----------|------------]
[----------|-------------|-----------|------------]

---------------------------------------------------------
CHORUS
*******
00:29
D             C                Bm           F#m
Just for the record I'm gonna put it down, down, down, down.
[-10-----------------------------------------s-]
[--------------13--------------12----------10-]
[----------------------------------------------]
[-use vol-pedal--------------------------------]
[---when needed--------------------------------]
[----------------------------------------------]

D             C                Bm             G
Just for the record I'm gonna change my life around
[-10----------------------------------------b--------]
[--------------13--------------12----------10-^^^^^^-]
[---------------------------------------------Whammy-]
[----------------------------------------------------]
[----------------------------------------------------]
[----------------------------------------------------]

---------------------------------------------------------
00:40
VERSE 2
********
A           G               A           G
Just a revolutionary with a pseudonym
Just another writer paying off my dues
[--br------|-------------|--br-------|-------------]
[-14-------|-------------|-14--------|-------------]
[----14-12-|-11-12-14-14-|-----14-12-|-11-12-------]
[----------|-------------|-----------|-------12-12-]
[----------|-------------|-----------|-------------]
[----------|-------------|-----------|-------------]

A               G            A            G
Just a bar room dancer on my final fling
Just finding inspiration well that's my excuse.
br
[--br------|-------------|--br-------|--------12--]
[-14-------|-------------|-14--------|------------]
[----14-12-|-11-12-14-14-|-----14-12-|-11-12------]
[----------|-------------|-----------|------------]
[----------|-------------|-----------|------------]
[----------|-------------|-----------|------------]

---------------------------------------------------------
CHORUS
*******
---------------------------------------------------------
01:10
VERSE 3
********
D              C                  Bm       F#m
Just another empty gesture with an empty glass
[-----]
[-br--]
[-9-7-]
[-----]
[-----]
[-----]

D                  C              Bm     G
Just another comic actor behind a tragic mask
[-----]
[--b--]
[-14--]
[-----]
[-----]
[-----]

A               G          A           G
But I've got no discipline got no self control
[--br------|-------------|--br-------|-------------]
[-14-------|-------------|-14--------|-------------]
[----14-12-|-11-12-14-14-|-----14-12-|-11-12-------]
[----------|-------------|-----------|-------12-12-]
[----------|-------------|-----------|-------------]
[----------|-------------|-----------|-------------]

A                  G                 A                  G
Just a little less painful here when my back's against the wall.
br
[--br------|-------------|--br-------|--------12-10-]
[-14-------|-------------|-14--------|--------------]
[----14-12-|-11-12-14-14-|-----14-12-|-11-12--------]
[----------|-------------|-----------|--------------]
[----------|-------------|-----------|--------------]
[----------|-------------|-----------|--------------]

---------------------------------------------------------
SYNTH - Em D Am G
---------------------------------------------------------
HEAVY GUITAR CHORDS
********************
D   C                   D   C           D   C
It's too late, I found, it's too far, I'm in two minds
D                          C
Both of them are out of it at the bar

---------------------------------------------------------
SYNTH - SOLO - Em D Am Bm          last chord C
---------------------------------------------------------
02:23  02:28
[vol-|----------------------|--------------------]
[-10-|-10----13----10----10-|-----h--------------]
[----|----12----10----10----|----9-10-9----------]
[----|----------------------|-12--------10----10-]
[----|----------------------|--------------10----]
[----|----------------------|--------------------]

h
[----------------------|------------------10-12-12-13-]
[-10----13----10----10-|------------10-13-------------]
[----12----10----10----|----9-10-12-------------------]
[----------------------|-12---------------------------]
[----------------------|------------------------------]
[----------------------|------------------------------]

Dm             C             Bb              C
When you say I got a problem that's a certainty
It's just for the record it's just a passing phase
[----------------------|--------------------]
[-10----13----10----10-|-----h--------------]
[----12----10----10----|----9-10-9----------]
[----------------------|-12--------10----10-]
[----------------------|--------------10----]
[----------------------|--------------------]

Dm        C                     Bb           C
But I can put it all right down to eccentricity
Just for the record I can stop any day
h
[----------------------|------------------10-12-12-13-]
[-10----13----10----10-|------------10-13-------------]
[----12----10----10----|----9-10-12-------------------]
[----------------------|-12---------------------------]
[----------------------|------------------------------]
[----------------------|------------------------------]

---------------------------------------------------------
HEAVY CHORDS
**************
D C X4


A Great Classic Marillion Song.


ENJOY.............

In addition to Chords / Tabs Marillion - Just For The Record (First Version), we offer an excerpt from a random book.And he goes out of the tent After the numbers, Again he rubbed his laughter with a satire In the camp of the blind: Mothers, fathers.

LiveInternet