AllChordsTabs.com

Lenny Kravitz - Love Love Love (First Version) Chords and Tabs


Artists:
Chords and Tabs » L » Lenny Kravitz - Love Love Love (First Version)

Lenny Kravitz - Love Love Love (First Version)

Lenny Kravitz - Love Love Love (First Version) Chords / Tabs

Lenny Kravitz - Love Love Love First Version: chords and tabs for the song. Watch chords and tablatures for all songs of the singer (group) Lenny Kravitz. Other chords and tabs for the "Love Love Love" can find at the bottom of the page.

-------------------------------------------------------------------------------
-------------------------------------------------------------------------------

Hi , since I didn't found any tabs for this song I thought I give it a try.
I think it's quite accurate. It's my first tab also , so don't be to hard.

Enjoy !

Tuning: standard

Intro

e|--------------------5----x-x----------------------------------------|
B|--------------------5----x-x----------------------------------------|
G|-------------------------x-x----------------------------------------| 7x
D|-------------------------x-x----------------------------------------|
A|--7-7--7-7-7-7-7---------x-x----------------------------------------|
E|--5-5--5-5-5-5-5---------x-x----------------------------------------|

e|--------------------------------------------------------------------|
B|--------------------------------------------------------------------|
G|--------------------------------------------------------------------| 1x
D|--------------------------------------------------------------------|
A|--7-7--7-7-7-7-7----8-----------------------------------------------|
E|--5-5--5-5-5-5-5----6-----------------------------------------------|

Verses :

e|--------------------5----x-x----------------------------------------|
B|--------------------5----x-x----------------------------------------|
G|-------------------------x-x----------------------------------------| 4x
D|-------------------------x-x----------------------------------------|
A|--7-7--7-7-7-7-7---------x-x----------------------------------------|
E|--5-5--5-5-5-5-5---------x-x----------------------------------------|

Don't need no television
Don't need no movie stars
Don't need no custom private planes

e|--------------------3----x-x----------------------------------------|
B|--------------------3----x-x----------------------------------------|
G|-------------------------x-x----------------------------------------| 1x
D|-------------------------x-x----------------------------------------|
A|--5-5--5-5-5-5-5---------x-x----------------------------------------|
E|--3-3--3-3-3-3-3---------x-x----------------------------------------|

Don't need no politicians

e|--------------------2----x-x----------------------------------------|
B|--------------------2----x-x----------------------------------------|
G|-------------------------x-x----------------------------------------| 1x
D|-------------------------x-x----------------------------------------|
A|--4-4--4-4-4-4-4---------x-x----------------------------------------|
E|--2-2--2-2-2-2-2---------x-x----------------------------------------|

Don't need no stocks and bonds

e|--------------------5----x-x----------------------------------------|
B|--------------------5----x-x----------------------------------------|
G|-------------------------x-x----------------------------------------| 1x
D|-------------------------x-x----------------------------------------|
A|--7-7--7-7-7-7-7---------x-x----------------------------------------|
E|--5-5--5-5-5-5-5---------x-x----------------------------------------|

Don't need no cars or boats or trains

e|--------------------------------------------------------------------|
B|--------------------------------------------------------------------|
G|--------------------------------------------------------------------| 1x
D|--------------------------------------------------------------------|
A|--7-7--7-7-7-7-7----8-----------------------------------------------|
E|--5-5--5-5-5-5-5----6-----------------------------------------------|


e|--------------------5----x-x----------------------------------------|
B|--------------------5----x-x----------------------------------------|
G|-------------------------x-x----------------------------------------| 4x
D|-------------------------x-x----------------------------------------|
A|--7-7--7-7-7-7-7---------x-x----------------------------------------|
E|--5-5--5-5-5-5-5---------x-x----------------------------------------|

Don't need no diamond jewellery
Don't need no rare cigars
Don't need no magnums of champagne

e|--------------------3----x-x----------------------------------------|
B|--------------------3----x-x----------------------------------------|
G|-------------------------x-x----------------------------------------| 1x
D|-------------------------x-x----------------------------------------|
A|--5-5--5-5-5-5-5---------x-x----------------------------------------|
E|--3-3--3-3-3-3-3---------x-x----------------------------------------|

Don't need no penthouse mansion

e|--------------------2----x-x----------------------------------------|
B|--------------------2----x-x----------------------------------------|
G|-------------------------x-x----------------------------------------| 1x
D|-------------------------x-x----------------------------------------|
A|--4-4--4-4-4-4-4---------x-x----------------------------------------|
E|--2-2--2-2-2-2-2---------x-x----------------------------------------|

Don't need no Paris fashion

e|--------------------5----x-x----------------------------------------|
B|--------------------5----x-x----------------------------------------|
G|-------------------------x-x----------------------------------------| 1x
D|-------------------------x-x----------------------------------------|
A|--7-7--7-7-7-7-7---------x-x----------------------------------------|
E|--5-5--5-5-5-5-5---------x-x----------------------------------------|

Don't need no shiny golden chain

e|--------------------------------------------------------------------|
B|--------------------------------------------------------------------|
G|--------------------------------------------------------------------| 1x
D|--------------------------------------------------------------------|
A|--7-7--7-7-7-7-7----8-----------------------------------------------|
E|--5-5--5-5-5-5-5----6-----------------------------------------------|

e|--------------------------------------------------------------------|
B|--------------------------------------------------------------------|
G|--------------------------------------------------------------------|-|
D|--------------------------------------------------------------------| |
A|-4-4-4-4-4-4-4-4--5-5-5-5-5-5-5-5--7-7-7-7-7-7-7-7--9-9-9-9-9-9-9-9-| |
E|-2-2-2-2-2-2-2-2--3-3-3-3-3-3-3-3--5-5-5-5-5-5-5-5--7-7-7-7-7-7-7-7-| |
|Chorus
There ain't nothing you can give me                                     |
I'm already there                                                       |
I got love                                                              |
I got love love                                                         |
|
e|--------------------------------------------------------------------| |
B|--------------------------------------------------------------------| |
G|--------------------------------------------------------------------| |
D|--------------------------------------------------------------------|-|
A|-10-10-10-10-10-10-10-10----8-8-8-8-8-8-8-8-------------------------|
E|--8--8--8--8--8--8--8--8----6-6-6-6-6-6-6-6-------------------------|

I got love love love

e|--------------------5----x-x----------------------------------------|
B|--------------------5----x-x----------------------------------------|
G|-------------------------x-x----------------------------------------| 2x
D|-------------------------x-x----------------------------------------|
A|--7-7--7-7-7-7-7---------x-x----------------------------------------|
E|--5-5--5-5-5-5-5---------x-x----------------------------------------|

^ Repeat the verses + chorus 3 times after eachother its exactly the
same only the chorus isnt played the third time Then end with the main
riff until the song is done :

e|--------------------5----x-x----------------------------------------|
B|--------------------5----x-x----------------------------------------|
G|-------------------------x-x----------------------------------------|
D|-------------------------x-x----------------------------------------|
A|--7-7--7-7-7-7-7---------x-x----------------------------------------|
E|--5-5--5-5-5-5-5---------x-x----------------------------------------|

In addition to Chords / Tabs Lenny Kravitz - Love Love Love (First Version), we offer an excerpt from a random book.- How grateful I am to my pet that he managed to win over such a lovely person in my favor.

LiveInternet