AllChordsTabs.com

Marilyn Manson - Antichrist Superstar Whole Record (First Version) Chords and Tabs


Artists:
Chords and Tabs » M » Marilyn Manson - Antichrist Superstar Whole Record (First Version)

Marilyn Manson - Antichrist Superstar Whole Record (First Version)

Marilyn Manson - Antichrist Superstar Whole Record (First Version) Chords / Tabs

Marilyn Manson - Antichrist Superstar Whole Record First Version: chords and tabs for the song. Watch chords and tablatures for all songs of the singer (group) Marilyn Manson. Other chords and tabs for the "Antichrist Superstar Whole Record" can find at the bottom of the page.

ANTICHRIST SUPERSTAR
MARILYN MANSON
TUNINGS FOR EACH SONG NOTED

|-----------------------------------------------------------------------------|
|-----------------------------------------------------------------------------|
|-----------------------------------------------------------------------------|
|-----------------------------------------------------------------------------|
|--the other lines (here and above) are the other strings --------------------|
|--the first line (here) will always the the lowest string (E) on the guitar--|

Irresponsible Hate Anthem
e a d g b e

main riff
|--4-4-4-7-7-9--10-10-10-9-9-7--4-4-4-7-7-7--2-2-2-3--|
|--4-4-4-7-7-9--10-10-10-9-9-7--4-4-4-7-7-7--2-2-2-3--|
|--2-2-2-5-5-7---8--8--8-7-7-5--2-2-2-5-5-5--0-0-0-1--|

|--4-4-4-7-7-9--10-10-10-9-9-7--4-4-4-7-7-7--/14-14-14-14-14-14-14-15--|
|--4-4-4-7-7-9--10-10-10-9-9-7--4-4-4-7-7-7--/14-14-14-14-14-14-14-15--|
|--2-2-2-5-5-7---8--8--8-7-7-5--2-2-2-5-5-5--/12-12-12-12-12-12-12-13--|

verse (scratching sound)
|--9-9-9-9--|
|--8-8-8-8--|
|--7-7-7-7--|
|-----------|

chorus
|------------------------------7-8--|
|-----------------------------------|
|--4--/10-9-7-9-7---4--/10-9-7------|
|--4--/10-9-7-9-7---4--/10-9-7------|
|--2--/8--7-5-7-5---2--/8--7-5------|

|--4--/10-9-7-9-7---2-2-2-3--|
|--4--/10-9-7-9-7---2-2-2-3--|
|--2--/8--7-5-7-5---0-0-0-1--|

interlude
|------------------------7----|
|--7-8-7--8-7-8--7-8-7-8---8--|
|-----------------------------|
|-----------------------------|
|-----------------------------|
|-----------------------------|

last chorus
|--4-4-/10-9-7-9-7--|        |--/14-14-14-14-14-14-14-14-14-14-14-14-14-14-14-14--|
|--4-4-/10-9-7-9-7--| [ x7 ] |--/14-14-14-14-14-14-14-14-14-14-14-14-14-14-14-14--|
|--2-2-/8--7-5-7-5--|        |--/12-12-12-12-12-12-12-12-12-12-12-12-12-12-12-12--|

|--4--4--4--4--4--|
|--4--4--4--4--4--|
|--2--2--2--2--2--|

The Beautiful People
d a d g b e

intro
|--xxxxx--xxxxx--xxxxx--xxxxx--|
|--xxxxx--xxxxx--xxxxx--xxxxx--|
|--xxxxx--xxxxx--xxxxx--xxxxx--|

|--0-3-0--|
|--0-3-0--|
|--0-3-0--|

main riff
|--0-6-0-6-0--0-6-0-6-0--0-3-0--|
|--0-6-0-6-0--0-6-0-6-0--0-3-0--|
|--0-6-0-6-0--0-6-0-6-0--0-3-0--|

verse1
|--xxxxxx--xxxxxx--xxx--|
|--xxxxxx--xxxxxx--xxx--|
|--xxxxxx--xxxxxx--xxx--|

bridge
|--7---6---5---4---|
|------------------|
|--5---4---3---2---|
|------------------|

fill (mute w/ drums)
|--xxxxxx--|
|--xxxxxx--|
|--xxxxxx--|

verse2
|--x-x-0-3-0--|
|--x-x-0-3-0--|
|--x-x-0-3-0--|

outro
|--0-6-0-6-0--0-6-0-6-0-6-5-3-0-|
|--0-6-0-6-0--0-6-0-6-0-6-5-3-0-|
|--0-6-0-6-0--0-6-0-6-0-6-5-3-0-|

Dried Up, Tied, and Dead to the World
d a d g b e

intro: mutes/ harmonics/ really strange fx

verseA
|--------------12--|
|--9-9---12-12-12--|
|--9-9---12-12------|
|-------------------|
|-------------------|

bridge
|--12-13-12--12-13-12--12-13-12-14-15-16--|
|-----------------------------------------|
|-----------------------------------------|
|-----------------------------------------|
|-----------------------------------------|
|-----------------------------------------|

verseB/ interlude
|---------------7-7-7-9-9-9--|-------------------|
|--9-9-9-7-7-9--5-5-5-7-7-7--|--9-9-9-7-7-9---7--|
|--7-7-7-5-5-7---------------|--7-7-7-5-5-7---7--|
|----------------------------|----------------7--|

chorus
|--9*--9*--7*--7*--4*--4*--5*--2*--|
|--9*--9*--7*--7*--4*--4*--5*--2*--|
|--7*--7*--5*--5*--2*--2*--3*--0*--|
|----------------------------------|

outro
|---------------------------12--|
|---------------------------12--|
|-------------------------------|
|--2-2--2-2--2-2--2-2--2-2------|
|--2-2--2-2--2-2--2-2--2-2------|
|--2-2--2-2--2-2--2-2--2-2------|
pm~~~~~~~~~~~~~~~~~~~~~

outro (gtr2)
|--5-4-3---5-4-3-5-4----|
|--------------------2--|
|-----------------------|
|-----------------------|
|-----------------------|

Tournequet
d a d g b e

intro
|--------------5^--|
|--------------5^--|
|--7^-7-5-3/-5-----|
|------------------|
|------------------|

verse1 (volume swells)
|--5--8--5--8--5--11--12--8--|
|----------------------------|
|----------------------------|

chorus
|--xxxx-8-8-8-8-8-8-8-8--12-12-12-12-12-12-12-12--------------------|
|--xxxx-8-8-8-8-8-8-8-8--12-12-12-12-12-12-12-12--------------------|
|--xxxx-8-8-8-8-8-8-8-8--12-12-12-12-12-12-12-12--------------------|

post chorus (these could be natural harmonics instead if regular notes)
|--11--15-15-15--11-10-----------------------------|
|---------------------10--10-12-------12-12-12-12--|
|-------------------------------12-12--------------|
|--------------------------------------------------|
|--------------------------------------------------|

the second verse is all mutes, feedback, and harmonics-- improvise

bridgeA
|--5-5-5-5-5-3-5-5-5-5-5-5---5-5-5-5-5-3-5-5-/8--|
~pm~~~~~~~~~~~~~~~~~~~~~~~~~~~~~~~~~~~~~~~~~~~~

bridgeB at the end the guitar trails off into harmonics and feedback
|--5-5-5-5-5-3-5-5-5-5-5-5---5-5-5-5-5-3-5-5-/8--|
|--5-5-5-5-5-3-5-5-5-5-5-5---5-5-5-5-5-3-5-5-/8--|
|--5-5-5-5-5-3-5-5-5-5-5-5---5-5-5-5-5-3-5-5-/8--|

pre-chorus
|--5^5--|

Little Horn
d a d g b e

main riff
|--3-0-0-3-0-0-3-0-0-3-0-0-3-0-5--3-0-0-3-0-0-3-0-0-3-0-0-6-5-3--|
|--3-0-0-3-0-0-3-0-0-3-0-0-3-0-5--3-0-0-3-0-0-3-0-0-3-0-0-6-5-3--|
|--3-0-0-3-0-0-3-0-0-3-0-0-3-0-5--3-0-0-3-0-0-3-0-0-3-0-0-6-5-3--|

pre-chorus
|--6-6-6-6--6-6-5-3-0--|
|--6-6-6-6--6-6-5-3-0--|
|--6-6-6-6--6-6-5-3-0--|

chorus
|--0----6--3--x-5-0-1---3-0-0-3-0-0-3-0-0-3-0-0-3-0-5--|
|--0----6--3--x-5-0-1---3-0-0-3-0-0-3-0-0-3-0-0-3-0-5--|
|--0----6--3--x-5-0-1---3-0-0-3-0-0-3-0-0-3-0-0-3-0-5--|

post-chorus
|--5**--|
|--5**--|
|--5**--|

bridge
|--------/5----------/5--1-1-1-1--|
|--6-5-3------6-5-3------1-1-1-1--|
~pm~~~~

Cryptorchid
d a d g b e

For this song I'm going to transcibe the main instruments for one guitar

electric drum intro
synth enters at a strange time
|--9----5---7---|
|---------------|
|---------------|
|---------------|
|---------------|
|---------------|

melotron riff
|--9----12---10---9----5----7----9--|
|--9----12---10---9----5----7----9--|
|--7----10----8---7----3----5----7--|
|-----------------------------------|

prick your finger...
|--5---0---2---3---2---|
|----------------------|
|----------------------|
|----------------------|

Deformography
d a d g b e

intro
|--4-4--3-3--------------|
|-------------2-2-0-2-5--|
|------------------------|
|------------------------|

verse
there's guitar in the verses-- only distorted bass
to play along w/ the distorted bass--
|--0-2---0-2---0-2---0-2-5-|
|--0-2---0-2---0-2---0-2-5-|
|--0-2---0-2---0-2---0-2-5-|

bridge
|--9-9--8-8--2-2-0-2-5--|

chorus
|--9^^----7-7-7--|
|--7^^----5-5-5--|
|----------------|

hard riff
|--7-7-7-7-7--7-7-7-7-7-5--|--7-7-7--7-7-7-7-7-5--|
|--7-7-7-7-7--7-7-7-7-7-5--|--7-7-7--7-7-7-7-7-5--|
|--7-7-7-7-7--7-7-7-7-7-5--|--7-7-7--7-7-7-7-7-5--|

you are the one I want...
|--2-2-2-2-5-2-2-2-0-2-2-2-2-|
~pm~~~~~~~~~~~~~~~~~~~~~~~

Wormboy
e a d g b e

introA
|--------------7-7--|
|--9-9---5-5---7-7--|
|--9-9---5-5---5-5--|
|--7-7---3-3--------|

introB-- a trillion guitars transcribed for one
|-----------------8^-----------------------|
|--5-7----------7------5-7----------7------|
|--------0--7-8-------------0--7-8-----6^--|

verse-- belive it or not, behind all the distorted bass there is a
guitar. This is pretty loosely transcribed  -- see twiggy5's tab for
a better transcription of the harmonics.

|-----------------7-8------------------|
|--5-7----------------5-7--------------|
|--------0-0-----------------0-0--6-5--|

chorus1
|--------------7-7-----------|
|--9-9---5-5---7-7--7777889--|
|--9-9---5-5---5-5--7777889--|
|--7-7---3-3--------5555667--|

chorus2
|--------------7-7-------------|
|--9-9---5-5---7-7----7777889--|
|--9-9---5-5---5-5----7777889--|
|--7-7---3-3----------5555667--|

when I got my wings...
|-----------7--7-7-7--|-------------------|
|--6-6-6-x--6--6-6-6--|-------------------|
|--4-4-4-x--5--5-5-5--|--7-7-7-7^--8-8-8--|
|---------------------|--5-5-5-5^--6-6-6--|

chorus3-- alternate between this and chorus2
|--------7-7----------------------|
|--9-9---7-7---7-7--10-10-10-9-7--|
|--9-9---5-5---7-7---8--8--8-7-5--|
|--7-7---------5-5----------------|

Mister Superstar
e a d g b e

intro
|--7--7-7-0---3--3-3-3-3-0---5--5-5-5-0-7--|
|--0--0-0-0---0--0-0-0-0-0---0--0-0-0-0-0--|

verse
|-5-5-5--7-7-7-7-7-7-7-7-7-7-7-7--|
|-0-0-0--0-0-0-0-0-0-0-0-0-0-0-0--|

chorus
|--9*--9*--5*--5*--7*--7*--9*--9*--|
|--7*--7*--3*--3*--5*--5*--7*--7*--|  * is [ x8 ]
|--0*--0*--0*--0*--0*--0*--0*--0*--|

interlude
|--19-18--------19-18-------|
|----------19--------19-17--|
|---------------------------|
|---------------------------|
|---------------------------|
|---------------------------|

outro
|--9-9-9--x-x-x-x--9-9--x-x--9-9-9--7-7-7--|
|--9-9-9--x-x-x-x--9-9--x-x--9-9-9--7-7-7--|
|--7-7-7--x-x-x-x--7-7--x-x--7-7-7--5-5-5--|
|------------------------------------------|

Angel With The Scabbed Wings
d a d g b e

intro
|--2-3-4-2-1--|
|--2-3-4-2-1--|
|--2-3-4-2-1--|

main riff
|--2-1--2-3-4--|
|--2-1--2-3-4--|
|--2-1--2-3-4--|

pre-verse
|--2-1--x-x-x-x--8--x-x-x-x-x--|
|--2-1--x-x-x-x--7--x-x-x-x-x--|
|--2-1--x-x-x-x-----x-x-x-x-x--|

|--2-1--x-x-x-x--8--7-7-7-7--|
|--2-1--x-x-x-x--7--5-5-5-5--|
|--2-1--x-x-x-x--------------|

verse
|-----------------8--------------|
|-----------------7--------------|
|--2-1--x-x-x-x-------x-x-x-x-x--|

dead is what he is...
|--2-1--x-x-x-x-x-x--|
|--2-1--x-x-x-x-x-x--|
|--2-1--x-x-x-x-x-x--|

chorus (he is the maker...)
|--6-6----9-9----13--------------------|
|--6-6----9-9----13--------------------|
|--6-6----9-9----13---1-1-1-1-1-1-1-1--|
~pm~~~~~~~~~~~~~~

bridge
|--9--8---2--3--4--|--9--8---9-10-11--|
|--9--8---2--3--4--|--9--8---7--8--9--|
|--9--8---2--3--4--|--9--8------------|

Kinderfeld
e a d g b e

chorus
|--8-8-8-8--4--4-4-4--|--3-3-3-3--2--2-2--|
|--8-8-8-8--4--4-4-4--|--3-3-3-3--2--2-2--|
|--6-6-6-6--2--2-2-2--|--1-1-1-1--0--0-0--|
|---------------------|-------------------|

verse2
|-----------------------------------------------------12-12-12--|
|--12-12-12-12--11-11-11-11--11-11-11-11--10-10-10-10-----------|
|---------------------------------------------------------------|
|---------------------------------------------------------------|
|---------------------------------------------------------------|
|---------------------------------------------------------------|

bridge
|-x-x--11-10----11-10--x-x-11-10--11-10-11-13--|
|----------------------------------------------|
|----------------------------------------------|
|----------------------------------------------|
|----------------------------------------------|
|----------------------------------------------|

outro
|--14---13---12---11---|
|----------------------|
|----------------------|
|----------------------|
|----------------------|
|----------------------|

Antichrist Superstar
b f# b e g# c#

intro/ interlude
|--0-0---0-0--|
|--0-0---0-0--|
|--0-0---0-0--|

main riff
|--0-0-3-0--/10^----|--0-0-3-0-6-5-3--|
|--0-0-3-0--/10^----|--0-0-3-0-6-5-3--|
|--0-0-3-0--/10^----|--0-0-3-0-6-5-3--|

verse
|--0-0-3-0--0-0-3-0--|
|--0-0-3-0--0-0-3-0--|
|--0-0-3-0--0-0-3-0--|

chorus
|--10-9--7---------------------|
|-------------0-0-3-0--0-3-0--|
|--8--7--5---0-0-3-0--0-3-0--|
|-------------0-0-3-0--0-3-0--|

post-chorus
|--0-0-3-0-6-5-3--|
|--0-0-3-0-6-5-3--|
|--0-0-3-0-6-5-3--|

1996
e a d g b e

intro (loosely transcribed)
|--8-0-7-0-5-0--8-0-7-0-5-0--0~----|
|--7-0-5-0-3-0--7-0-5-0-3-0--2~----|
|--0-0-0-0-0-0--0-0-0-0-0-0--0~----|
|----------------------------------|

main riff
|--2-2-2-5-7-0-8-8-8-7-5--|
|--2-2-2-5-7-0-8-8-8-7-5--|
|--0-0-0-3-5-0-6-6-6-5-3--|

bridge
|---------------3-3-3-3-3-3-3-3--|
|---------------3-3-3-3-3-3-3-3--|
|--2-2-2-5-7-0--3-3-3-3-3-3-3-3--|
|--2-2-2-5-7-0-------------------|
|--0-0-0-3-5-0-------------------|

chorus
|-------------------9-12-7-9----------|
|--2-5-8-7----------9-12-7-9----------|
|--2-5-8-7----------7-10-5-7----------|
|--0-3-6-5--000000------------000000--|
~~pm~~            ~~pm~~

verse2
|------8-8-8-7-5--|
|------8-8-8-7-5--|
|------6-6-6-5-3--|

Minute Of Decay
d a d g b e

intro-- turn all mids and bass all the way down
turn all trebbles all the way up- play as sloppy as you can
|--x-2-2--5--5---5--|
|--x-2-2--5--5-x-5--|
|--x-2-2--5--5-x-5--|
|--x-0-0-----3-x-3--|
|-------------------|

verse
fade and hit random notes/ mutes

I'm on my way down...
|--8-8-8-5-5-5-7-7-7-7-7-7-7-7--|
|-------------------------------|
|-------------------------------|
|-------------------------------|
|-------------------------------|
|-------------------------------|

chorus
|-5-5-5-5-5-5-5-7--|--5-5-5-5-5-5-5-3--|
|-5-5-5-5-5-5-5-7--|--5-5-5-5-5-5-5-3--|
|-5-5-5-5-5-5-5-7--|--5-5-5-5-5-5-5-3--|

bridge
|---2-----3-----|--3------0---2--|
|---2-----3-----|----------------|
|---2-----3-----|----------------|

The Reflecting God
e a d g b e

verse1                      the high pitched "pings" -- notice the timing
|---------------------------|--10-10-----10-----10-10-----10--|
|---------------------------|---------------------------------|
|--3-2-0-2~~~--3-2-0-/6~~~--|---------------------------------|
|---------------------------|---------------------------------|
|---------------------------|---------------------------------|

bridge
|--7~~~~~~~--7~~~~~~~----------------------7~~~~~~~--7~~~~~~~--|
|--0~~~~~~~--0~~~~~~~--8~~~~~~~--5~~~~~~~--0~~~~~~~--0~~~~~~~--|

pre-chorus
|--10--7---2-2-2-2-2-2-2-2-2-2--|
|--10--7---2-2-2-2-2-2-2-2-2-2--|
|--8---5---0-0-0-0-0-0-0-0-0-0--|

chorus
|--2--2--8-8-8-8-7-5-4--|
|--2--2--8-8-8-8-7-5-4--|
|--0--0--6-6-6-6-5-3-2--|

post chorus
|--6-0-6-0-6-0-6-0-3-0--|

breakdown
|--2--|
|--2--|
|--0--|

"no salvation"
|--2--3-2-0--2--3-2-0--|
|----------------------|
|----------------------|

"forgiveness"
|--13^^--0--12^^^^--|  bend! bend!
|-------------------|
|-------------------|
|-------------------|
|-------------------|
|-------------------|

last pre-chorus-- strum pattern not included
|--8---5---0-------|
|--8---5---0-------|
|--9---6---1-------|
|--10--7---2-------|
|--10--7---2-------|
|--8---5---0-------|

Man that You Fear
|----------------------|
|--a work in progress--|
|----------------------|

In addition to Chords / Tabs Marilyn Manson - Antichrist Superstar Whole Record (First Version), we offer an excerpt from a random book.But I notice that I have not yet said anything about the main character of my childhood - the piano itself.

LiveInternet