AllChordsTabs.com

Marduk - Bleached Bones (First Version) Chords and Tabs


Artists:
Chords and Tabs » M » Marduk - Bleached Bones (First Version)

Marduk - Bleached Bones (First Version)

Marduk - Bleached Bones (First Version) Chords / Tabs

Marduk - Bleached Bones First Version: chords and tabs for the song. Watch chords and tablatures for all songs of the singer (group) Marduk. Other chords and tabs for the "Bleached Bones" can find at the bottom of the page.

Standard tuning


Riff 1: Intro/Verse
e|-----------------|
B|-----------------|
G|-----------------| Slide, hammer-on, pull-off...
D|--------4-5--5-4-| Whatever sounds best to you.
A|-2-4-2--2-3--3-2-|
E|-0-2-0-----------|


Riff 2: Fill
e|-----------|---------------|-----------|---------|
B|-----------|---------------|-----------|---------|
G|-----------|---------------|-----------|---------|
D|--------4--|-------4-5-4-2-|--------4--|-5---2---|
A|-----2-----|-----2---------|-----2-----|-3---0---|
E|-0-0-------|-0-0-----------|-0-0-------|---------|
. .         . .             . .
e|-----------|---------------|-----------|---------|
B|-----------|---------------|-----------|---------|
G|-----------|---------------|-----------|---------|
D|--------4--|-------4-5-4-2-|--------4--|-2-------|
A|-----2-----|-----2---------|-----2-----|-0---5---|
E|-0-0-------|-0-0-----------|-0-0-------|-----3---|
. .         . .             . .

Riff 3: Fill     1.2.3.     4.
e|--------------|---------|-----------|
B|--------------|---------|-----------|
G|--------------|---------|-----------|
D|------------4-|---------|-----------|
A|-----2h3------|-2-------|-2---------|
E|-0-0----------|---------|-------8-|
. .

Riff 4: Pre-chorus
e|--------------|-------------|
B|--------------|-------------|
G|--------------|-------------|
D|------------4-|-------------|
A|-----2h3------|-2---5-4-3-2-|
E|-0-0----------|-----3-2-1-0-|
. .                . . . .

Riff 5: Chorus
e|------------|--------------|---------|-----------------|
B|------------|--------------|---------|-----------------|
G|------------|--------------|---------|-----------------|
D|------------|--------------|-------3-|-7-8-7---7-8-7-5-|
A|-2--------3-|-2------------|-2-------|-----------------|
E|-0---0-0--1-|-0---0-0--0-0-|-0-----1-|-----------------|
. .          . .  . .

Riff 6: Bridge
e|-------|-------|-------|------------|
B|-------|-------|-------|------------|
G|-10----|-9---7-|-5---4-|-5--7--5--4-| Pick all chords multiple times.
D|-8-----|-7---5-|-3---2-|-3--5--3--2-| Fast.
A|-------|-------|-------|------------|
E|-------|-------|-------|------------|

Riff 7: Outro
e|--------------------------------------------------|
B|--------------------------------------------------|
G|--------------------------------------------------|
D|--------------------------------------------------|
A|-2---3-2---2---3-5-6-6---6-5-3--2----3---2--------|
E|-0---1-0---0---1-3-4-4---4-5-1--0----1---0--------|

In addition to Chords / Tabs Marduk - Bleached Bones (First Version), we offer an excerpt from a random book.After a pause of ten to fifteen seconds, she continued: “I see your next remark in your eyes.

LiveInternet