AllChordsTabs.com

Jewel - Near You Always (Second Version) Chords and Tabs


Artists:
Chords and Tabs » J » Jewel - Near You Always (Second Version)

Jewel - Near You Always (Second Version)

Jewel - Near You Always (Second Version) Chords / Tabs

Jewel - Near You Always Second Version: chords and tabs for the song. Watch chords and tablatures for all songs of the singer (group) Jewel. Other chords and tabs for the "Near You Always" can find at the bottom of the page.

Open Db tuning.


[Intro]

Db|-----0-----------0--------|-----0-----------0--------|
Ab|--5-----5-----4-----4-----|--2-----2-----0-----0-----|
F|--------------------------|--------------------------|
Db|--------------------------|--------------------------|
Ab|--5--------5--4--------4--|--2--------2--0-----------|
Db|--------------------------|--------------------------|

Db|-----0--------------0------|------0------------0-------|
Ab|---------------------------|---------------------------|
F|--5-----5------4------4----|--3-----3------2-----2-----|
Db|---------------------------|---------------------------|
Ab|---------------------------|---------------------------|
Db|--5--------5---5---------5-|--4--------4---3--------3--|

*
Db|-----0--------------0------|--0-0-----x12-----|
Ab|---------------------------|--5---5---x12-----|
F|--1-----1------1------1----|--0-----0-x12-----|
Db|---------------------------|--0-------x12-----|
Ab|---------------------------|--0-------x12-----|
Db|--2--------2---2---------2-|--0-------x12-----|


[Verse]

Please don't say I          love      you,
Db|-----0-----------0--------|-----0-----------0--------|
Ab|--5-----5-----4-----4-----|--2-----2-----0-----0-----|
F|--------------------------|--------------------------|
Db|--------------------------|--------------------------|
Ab|--5--------5--4--------4--|--2--------2--0-----------|
Db|--------------------------|--------------------------|

those words      touch   me much too deeply.
Db|-----0--------------0------|-----0--------------0-------0--|
Ab|---------------------------|-4-------4---0---2------4------|
F|--5-----5------5------5----|-------------------------------|
Db|---------------------------|-------------------------------|
Ab|---------------------------|-0-----------0---0------0------|
Db|--5--------5---5---------5-|-------------------------------|

And they make      my core tremble
Db|-----0-----------0--------|-----0-----------0--------|
Ab|--5-----5-----4-----4-----|--2-----2-----0-----0-----|
F|--------------------------|--------------------------|
Db|--------------------------|--------------------------|
Ab|--5--------5--4--------4--|--2--------2--0-----------|
Db|--------------------------|--------------------------|

don't think you realise the effect you have over me.
Db|-----0--------------0------|-----0--------------0-------0--|
Ab|---------------------------|-4-------4---0---2------4------|
F|--5-----5------5------5----|-------------------------------|
Db|---------------------------|-------------------------------|
Ab|---------------------------|-0-----------0---0------0------|
Db|--5--------5---5---------5-|-------------------------------|

Please  don't    look at me like that
Db|-----0-----------0--------|-----0-----------0--------|
Ab|--2-----2-----2-----2-----|--0-----0-----0-----0-----|
F|--------------------------|--------------------------|
Db|--------------------------|--------------------------|
Ab|--2--------2--2--------2--|--0--------0--0-----------|
Db|--------------------------|--------------------------|

it just makes me           want to make you near me
Db|-----0--------------0------|------0------------0-------|
Ab|---------------------------|---------------------------|
F|--5-----5------4------4----|--3-----3------2-----2-----|
Db|---------------------------|---------------------------|
Ab|---------------------------|---------------------------|
Db|--5--------5---5---------5-|--4--------4---3--------3--|

al - ways.
Db|-----0--------------0------|--0--0---------|
Ab|---------------------------|--5----5----5--|
F|--1-----1------1------1----|--0------0-----|
Db|---------------------------|--0------------|
Ab|---------------------------|--0---------5--|
Db|--2--------2---2---------2-|--0------------|

Please don't            kiss me so sweet
Db|-----0-----------0--------|-----0-----------0--------|
Ab|--5-----5-----4-----4-----|--2-----2-----0-----0-----|
F|--------------------------|--------------------------|
Db|--------------------------|--------------------------|
Ab|--5--------5--4--------4--|--2--------2--0-----------|
Db|--------------------------|--------------------------|

it makes me crave a thousand kisses to follow.
Db|-----0--------------0------|-----0--------------0-------0--|
Ab|---------------------------|-4-------4---0---2------4------|
F|--5-----5------5------5----|-------------------------------|
Db|---------------------------|-------------------------------|
Ab|---------------------------|-0-----------0---0------0------|
Db|--5--------5---5---------5-|-------------------------------|

And please don't       touch me like that
Db|-----0-----------0--------|-----0-----------0--------|
Ab|--5-----5-----4-----4-----|--2-----2-----0-----0-----|
F|--------------------------|--------------------------|
Db|--------------------------|--------------------------|
Ab|--5--------5--4--------4--|--2--------2--0-----------|
Db|--------------------------|--------------------------|

makes every other    embrace seem pale and shallow.
Db|-----0--------------0------|-----0--------------0-------0--|
Ab|---------------------------|-4-------4---0---2------4------|
F|--5-----5------5------5----|-------------------------------|
Db|---------------------------|-------------------------------|
Ab|---------------------------|-0-----------0---0------0------|
Db|--5--------5---5---------5-|-------------------------------|

And please don't come so close
Db|-----0-----------0--------|-----0-----------0--------|
Ab|--2-----2-----2-----2-----|--0-----0-----0-----0-----|
F|--------------------------|--------------------------|
Db|--------------------------|--------------------------|
Ab|--2--------2--2--------2--|--0--------0--0-----------|
Db|--------------------------|--------------------------|

it just makes me want to   make you near me
Db|-----0--------------0------|------0------------0-------|
Ab|---------------------------|---------------------------|
F|--5-----5------4------4----|--3-----3------2-----2-----|
Db|---------------------------|---------------------------|
Ab|---------------------------|---------------------------|
Db|--5--------5---5---------5-|--4--------4---3--------3--|

al - ways.
Db|-----0--------------0------|-0-0-----0-0-----0-0-----0-0-----|
Ab|---------------------------|-5---5---5---5---5---5---5---5---|
F|--1-----1------1------1----|-0-----0-0-----0-0-----0-0-----0-|
Db|---------------------------|-0-------0-------0-------0-------|
Ab|---------------------------|-0-------0-------0-------0-------|
Db|--2--------2---2---------2-|-0-------0-------0-------0-------|


[Bridge]

Please   don't          bring me      flow-ers
Db|--7-----------5-----------|--------------------------|
Ab|-----0-----0-----0-----0--|--9-----9-----4-----5-----|
F |--------0-----------0-----|-----0-----0-----0-----0--|
Db|--------------------------|--------------------------|
Ab|--7-----------7-----------|--0-----------0-----0-----|
Db|--------------------------|--------------------------|

they only whisper the  sweet things you'd say.
Db|--5-----------4-----------|--------------------------|
Ab|-----0-----0-----0-----0--|--7-----7-----4-----5-----|
F |--------0-----------0-----|-----0-----0-----0-----0--|
Db|--------------------------|--------------------------|
Ab|--5-----------5-----------|--0-----------0-----0-----|
Db|--------------------------|--------------------------|

Don't try            to         under-stand  me
Db|--7-----------5-----------|--------------------------|
Ab|-----0-----0-----0-----0--|--9-----9-----4-----5-----|
F |--------0-----------0-----|-----0-----0-----0-----0--|
Db|--------------------------|--------------------------|
Ab|--7-----------7-----------|--0-----------0-----0-----|
Db|--------------------------|--------------------------|

your hands            already know
Db|--5-----------4-----------|--2-----------2-----------|
Ab|-----0-----0-----0-----0--|-----0-----0-----0-----0--|
F |--------0-----------0-----|--------0-----------0-----|
Db|--------------------------|--------------------------|
Ab|--5-----------5-----------|--4-----------4-----------|
Db|--------------------------|--------------------------|

too  much             any-way.
Db|--0-----------4-----------|-----0-----0--0-----0-----|
Ab|-----2-----2-----0-----0--|--4-----4--------5-----5--|
F |--------0-----------0-----|--------------------------|
Db|--------------------------|--------------------------|
Ab|--2-----------2-----------|--2-----------2-----------|
Db|--------------------------|--------------------------|

And it makes me want to make you near me
Db|-----0--------------0------|------0------------0-------|
Ab|---------------------------|---------------------------|
F|--5-----5------4------4----|--3-----3------2-----2-----|
Db|---------------------------|---------------------------|
Ab|---------------------------|---------------------------|
Db|--5--------5---5---------5-|--4--------4---3--------3--|

al - ways.                           *
Db|-----0--------------0------|--0-0-----x12-----|
Ab|---------------------------|--5---5---x12-----|
F|--1-----1------1------1----|--0-----0-x12-----|
Db|---------------------------|--0-------x12-----|
Ab|---------------------------|--0-------x12-----|
Db|--2--------2---2---------2-|--0-------x12-----|


[Instrumental]

Db|--2p0-----0-----0---------|--2p0-----0--------------0----|
Ab|-------4-----5--------0---|-------4-----0-----2--------0-|
F |-------------------0------|----------------0-----0-------|
Db|--------------------------|------------------------------|
Ab|--------------------------|------------------------------|
Db|--------------------------|------------------------------|

Db|--2p0-----0-----0---------|--2p0-----0--------------0----|
Ab|-------4-----5--------0---|-------4-----0-----2--------0-|
F |-------------------0------|----------------0-----0-------|
Db|--------------------------|------------------------------|
Ab|--------------------------|------------------------------|
Db|--------------------------|------------------------------|

Db|-----------------0--------|-----0-----------0--------|
Ab|-----0-----0--------0-----|--------0-----------0-----|
F |--2-----1-----0--------0--|-----------0-----------0--|
Db|--------------------------|--4-----------3-----------|
Ab|--------------------------|--------------------------|
Db|--------------------------|--------------------------|

Db|-----0----------0--------x12-|
Ab|-------------------0-----x12-|
F |----------------------0--x12-|
Db|--2----------0-----------x12-|
Ab|--------2h4--------------x12-|
Db|-------------------------x12-|


[Verse]

And when you            look in my eyes,
Db|-----0-----------0--------|-----0-----------0--------|
Ab|--5-----5-----4-----4-----|--2-----2-----0-----0-----|
F|--------------------------|--------------------------|
Db|--------------------------|--------------------------|
Ab|--5--------5--4--------4--|--2--------2--0-----------|
Db|--------------------------|--------------------------|

please know, my heart is in your hands.
Db|-----0--------------0------|-----0--------------0-------0--|
Ab|---------------------------|-4-------4---0---2------4------|
F|--5-----5------5------5----|-------------------------------|
Db|---------------------------|-------------------------------|
Ab|---------------------------|-0-----------0---0------0------|
Db|--5--------5---5---------5-|-------------------------------|

It's nothing that I    under-stand
Db|-----0-----------0--------|-----0-----------0--------|
Ab|--5-----5-----4-----4-----|--2-----2-----0-----0-----|
F|--------------------------|--------------------------|
Db|--------------------------|--------------------------|
Ab|--5--------5--4--------4--|--2--------2--0-----------|
Db|--------------------------|--------------------------|

but when in your arms        you have complete power over me.
Db|-----0--------------0------|-----0--------------0-------0--|
Ab|---------------------------|-4-------4---0---2------4------|
F|--5-----5------5------5----|-------------------------------|
Db|---------------------------|-------------------------------|
Ab|---------------------------|-0-----------0---0------0------|
Db|--5--------5---5---------5-|-------------------------------|

So be      gentle if you please cos your
Db|-----0-----------0--------|--0--0-------x--0----------|
Ab|--2-----2-----2-----2-----|--0-----0----x-----0-------|
F|--------------------------|--0--------0-x--------0----|
Db|--------------------------|--0----------x-------------|
Ab|--2--------2--2--------2--|--0----------x-------------|
Db|--------------------------|--0----------x-------------|

hands are in my hair but my heart is in your teeth babe and it
Db|-----0--------------0------|------0------------0-------|
Ab|---------------------------|---------------------------|
F|--5-----5------5------5----|--4-----4------4-----4-----|
Db|---------------------------|---------------------------|
Ab|---------------------------|---------------------------|
Db|--5--------5---5---------5-|--5--------5---5--------5--|

makes me want to make you near    me          al -
Db|-----0--------------0------|------0------------0-------|
Ab|---------------------------|---------------------------|
F|--3-----3------3------3----|--2-----2------2-----2-----|
Db|---------------------------|---------------------------|
Ab|---------------------------|---------------------------|
Db|--4--------4---4---------4-|--3--------3---3--------3--|

ways.
Db|-----0--------------0------|--x--0------x--|
Ab|---------------------------|--x----0----x--|
F|--1-----1------1------1----|--x------0--x--|
Db|---------------------------|---------------|
Ab|---------------------------|---------------|
Db|--2--------2---2---------2-|---------------|

My   hands are in my hair but my heart is in your teeth babe and it
Db|-----0--------------0------|------0------------0-------|
Ab|---------------------------|---------------------------|
F|--5-----5------5------5----|--4-----4------4-----4-----|
Db|---------------------------|---------------------------|
Ab|---------------------------|---------------------------|
Db|--5--------5---5---------5-|--5--------5---5--------5--|

makes me want to make you near    me          al -
Db|-----0--------------0------|------0------------0-------|
Ab|---------------------------|---------------------------|
F|--3-----3------3------3----|--2-----2------2-----2-----|
Db|---------------------------|---------------------------|
Ab|---------------------------|---------------------------|
Db|--4--------4---4---------4-|--3--------3---3--------3--|

ways.
Db|-----0--------------0------|
Ab|---------------------------|
F|--1-----1------1------1----|
Db|---------------------------|
Ab|---------------------------|
Db|--2--------2---2---------2-|

Want to be
Db|-----0-----------0--------|-----0-----------0--------|
Ab|--5-----5-----4-----4-----|--2-----2-----0-----0-----|
F|--------------------------|--------------------------|
Db|--------------------------|--------------------------|
Ab|--5--------5--4--------4--|--2--------2--0-----------|
Db|--------------------------|--------------------------|

near      you        al  -
Db|-----0--------------0------|-----0--------------0-------0--|
Ab|---------------------------|-4-------4---0---2------4------|
F|--5-----5------5------5----|-------------------------------|
Db|---------------------------|-------------------------------|
Ab|---------------------------|-0-----------0---0------0------|
Db|--5--------5---5---------5-|-------------------------------|

ways.                            Want to be
Db|-----0-----------0--------|-----0-----------0--------|
Ab|--5-----5-----4-----4-----|--2-----2-----0-----0-----|
F|--------------------------|--------------------------|
Db|--------------------------|--------------------------|
Ab|--5--------5--4--------4--|--2--------2--0-----------|
Db|--------------------------|--------------------------|

near      you        al  -
Db|-----0--------------0------|-----0--------------0-------0--|
Ab|---------------------------|-4-------4---0---2------4------|
F|--5-----5------5------5----|-------------------------------|
Db|---------------------------|-------------------------------|
Ab|---------------------------|-0-----------0---0------0------|
Db|--5--------5---5---------5-|-------------------------------|

ways.                            Want to be
Db|-----0-----------0--------|-----0-----------0--------|
Ab|--5-----5-----4-----4-----|--2-----2-----0-----0-----|
F|--------------------------|--------------------------|
Db|--------------------------|--------------------------|
Ab|--5--------5--4--------4--|--2--------2--0-----------|
Db|--------------------------|--------------------------|

near      you        al  -         ways.
Db|-----0--------------0------|-----0--------------0-------0-x12-|
Ab|---------------------------|-4-------4---0---2------4-----x12-|
F|--5-----5------5------5----|------------------------------x12-|
Db|---------------------------|------------------------------x12-|
Ab|---------------------------|-0-----------0---0------0-----x12-|
Db|--5--------5---5---------5-|------------------------------x12-|

In addition to Chords / Tabs Jewel - Near You Always (Second Version), we offer an excerpt from a random book.In the far left corner there was indeed a girl in an old-fashioned outfit praying fervently.

LiveInternet