AllChordsTabs.com

Junoon - National Anthem (Second Version) Chords and Tabs


Artists:
Chords and Tabs » J » Junoon - National Anthem (Second Version)

Junoon - National Anthem (Second Version)

Junoon - National Anthem (Second Version) Chords / Tabs

Junoon - National Anthem Second Version: chords and tabs for the song. Watch chords and tablatures for all songs of the singer (group) Junoon. Other chords and tabs for the "National Anthem" can find at the bottom of the page.

This isn't a very hard to song to figure out, they're two guitars going simulataneously;
the first guitar does the first part and both guitars repeat it again, the second guitar
is in a lower octave throughout the song, but the two are playing the same notes.
Guitar1 is Salman Ahmed, Guitar2 is one of the background guitarists going!

Part 1:

Guitar1:
<------X------->
e----------------|--------------------------------------------------------------
B----------7-----|---10---7---------------------7-9-10-9-7----------------------
G----6-7-9---7-9-|------9---7-6---------6---7-9------------9-7----9-7-6-7-6-----  repeat twice
D--7-------------|---------------9----9---9--------------------9------------9-7-
A----------------|--------------------------------------------------------------
E----------------|--------------------------------------------------------------

Guitar2:
<--------Y-------->
e------------------|---------------------------------------------------
B------------------|----------------------------------------------------
G------------------|-2----------------------------1-2-1-----------------
D------0-2-4-2-0-2-|---2-4-2-0----------0-----2-4-------4-2-0---0-------  start playing this
A--0-4-------------|------------4-2---4---2-4-----------------4---4-2-0-  after guitar1 finishes
E------------------|----------------------------------------------------  it the first time

Part 2:

Guitar1:

e-------------------------------12-13-16-12--------------------------------
B----12-15-13-12-------12-13-15--------------14-15-19-21-22-21-19-21-18-19-
G-14-------------13-14-----------------------------------------------------
D--------------------------------------------------------------------------
A--------------------------------------------------------------------------
E--------------------------------------------------------------------------

the last 3 or 4 notes may not be 100% correct but listen to Salman Ahmed playing it
to get a better idea, but the guitar2 version below is correct for sure, so just move
that up 1 octave!

Guitar 2:

e---------------------0-1-4-5-----------7-8-7----7---------
B---0-3-1-0-----0-1-3--------------9-10-------10---9-10----
G-2---------1-2---------------7-10-------------------------
D----------------------------------------------------------
A----------------------------------------------------------
E----------------------------------------------------------

pART 3:

After thAT guitar1 repeats Part 1 again, but the part Ive marked out with an X
is repeated twice before it moves on; Guitar2 repeats 'Y' twice before moving
onto:

Guitar2:
e-0--------------------0-2-0---0---0-2---------------0-2-4-5-4-2-0-----0------------
B---3-2-3-2-0------2-3-------3---------3-2-0-2-3-0-2---------------3-2---3-2-3-2-0--
G-------------2--2---------------2------------------------------------------------2-
D-----------------------------------------------------------------------------------
A-----------------------------------------------------------------------------------
E-----------------------------------------------------------------------------------

In addition to Chords / Tabs Junoon - National Anthem (Second Version), we offer an excerpt from a random book.Put my hand on my heart: I don’t remember that we ever talked to him: When will you come? etc.

LiveInternet