AllChordsTabs.com

Kinks - I Gotta Move (First Version) Chords and Tabs


Artists:
Chords and Tabs » K » Kinks - I Gotta Move (First Version)

Kinks - I Gotta Move (First Version)

Kinks - I Gotta Move (First Version) Chords / Tabs

Kinks - I Gotta Move First Version: chords and tabs for the song. Watch chords and tablatures for all songs of the singer (group) Kinks. Other chords and tabs for the "I Gotta Move" can find at the bottom of the page.

I Gotta move by the Kinks

G Maj let it ring
E-------------------------------3------------------------------|
B-------------------------------3------------------------------|
G-------------------------------4------------------------------|
D-----------------3-------------5------------------------------|
A-----1-3-1-3-/-5---5-1-3-1-----5------------------------------|
E-3-3-----------------------3-1-3------------------------------|
I don't wanna get left behind....
E-------------------------------3------------------------------|
B-------------------------------3------------------------------|
G-------------------------------4------------------------------|
D-----------------3-------------5------------------------------|
A-----1-3-1-3-/-5---5-1-3-1-----5------------------------------|
E-3-3-----------------------3-1-3------------------------------|
Gonna love my baby all the time....
E-------------------------------3------------------------------|
B-------------------------------3------------------------------|
G-------------------------------4------------------------------|
D-----------------3-------------5------------------------------|
A-----1-3-1-3-/-5---5-1-3-1-----5------------------------------|
E-3-3-----------------------3-1-3------------------------------|
But i don't wanna get left alone....
E------ ------------------------3-------------------------------|
B----- -------------------------3-------------------------------|
G---  --------------------------4-------------------------------|
D---- ------------3-------------5-------------------------------|
A---- 1-3-1-3-/-5---5-1-3-1-----5-------------------------------|
E-3-3--- -------------------3-1-3-------------------------------|
I gotta move on down to my baby's home...
E-------------------------------3--------------------------------|
B-------------------------------3--------------------------------|
G-------------------------------4--------------------------------|
D-----------------3-------------5--------------------------------|
A-----1-3-1-3-/-5---5--1-3-1----5--------------------------------|
E-3-3-----------------------3-1-3--------------------------------|
And if my baby isn't there....
E-------------------------------3--------------------------------|
B-------------------------------3--------------------------------|
G-------------------------------4--------------------------------|
D-----------------3-------------5--------------------------------|
A-----1-3-1-3-/-5---5-1-3-1-----5--------------------------------|
E-3-3-----------------------3-1-3--------------------------------|
Im gonna dust my shoes and comb my hair...
C7 ring out     D ring out
E------------------2---------|
B--1---------------3---------|
G--3---------------2---------| < You can play D7 if you like
D--2-------------------------|
A--3-------------------------|
E----------------------------|
I gotta move    I gotta move......
E----------------------------------------------------------------3--|
B----------------------------------------------------------------3--|
G----------------------------------------------------------------4--|
D------------------------3---------------------------------------5--|
A------------1-3-1-3-/-5---5-1-3-1---------1-3-1-3-/-5-1-3-1-----5--|
E--------3-3-----------------------3-1-3-3-------------------3-1-3--|
I gotta move..                i gotta move..                    2nd
verse

The 2nd verse is played
the same but the lyrics
are different.

There is change of key at
some point in the song
where the riff is played
in C.
C Maj
E------------------------------X-|
B------------------------------5-|
G----------------3-------------5-|
D----1-3-1-3-/-5---5-1-3-1-----5-|
A-3-3----------------------3-1-3-|
E--------------------------------|
the ending
you just go from G to F

E-3-X-1-X-3-X-1-X-3333-|
B-3-X-1-X-3-X-1-X-3333-|
G-4-X-2-X-4-X-2-X-4444-|  x3
D-5-X-3-X-5-X-3-X-5555-|
A-5-X-3-X-5-X-3-X-5555-|
E-3-X-1-X-3-X-1-X-3333-|
i gotta move...

I hope this has served you well
sorry about the other lyrics but
im a guitarist not a karaoke machine.:)

tabbed and posted by Alex Purdy Of Hull

In addition to Chords / Tabs Kinks - I Gotta Move (First Version), we offer an excerpt from a random book.And if you lose such a person now, then life will never duplicate him in someone else.

LiveInternet