AllChordsTabs.com

Lifehouse - Gods Lemonade (First Version) Chords and Tabs


Artists:
Chords and Tabs » L » Lifehouse - Gods Lemonade (First Version)

Lifehouse - Gods Lemonade (First Version)

Lifehouse - Gods Lemonade (First Version) Chords / Tabs

Lifehouse - Gods Lemonade First Version: chords and tabs for the song. Watch chords and tablatures for all songs of the singer (group) Lifehouse. Other chords and tabs for the "Gods Lemonade" can find at the bottom of the page.

{{ THIS IS ONE OF THE RAREST LIFEHOUSE SONGS OUT THERE! }}


INTRO
e|-------------------------|
b|-------------------------|
g|-------------------------|  Play this twice.
d|-------------------------|
a|-----0-2-------0-1-1-0---|
e|-0-3-----0-0-3---------3-|

e|---------------------|
b|---------------------|
g|---------------------|  Play this twice.
d|-2-5-7-9-2-5-7-8-7-5-|
a|-2-x-x-x-2-x-x-x-x-x-|
e|-0-3-5-7-0-3-5-6-5-3-|





VERSE
e|-------------------------|
b|-------------------------|
g|-------------------------|  Play this four times.
d|-------------------------|
a|-----0-2-------0-1-1-0---|
e|-0-3-----0-0-3---------3-|




PRECHORUS
e|-0-2-|
b|-3-3-|
g|-2-2-|  Play this four times.
d|-0-0-|
a|-----|
e|-----|




CHORUS
e|-------------|
b|-------------|
g|---4-5-9-7-5-|  Play this twice.
d|-5-4-5-9-7-5-|
a|-5-2-3-7-5-3-|
e|-3-----------|

e|-----------------|
b|-----------------|
g|-2-2---2-2---7-7-| Play this three times.
d|-2-2---2-2---7-7-|
a|-0-0---0-0---5-5-|
e|-----------------|

On the forth time:
e|-------------------|
b|-------------------|
g|-2-2-x-x-2-2-x-x-7-| (Let x577xx ring)
d|-2-2-x-x-2-2-x-x-7-|
a|-0-0-x-x-0-0-x-x-5-|
e|-------------------|





BREAK
e|---------------------|
b|---------------------|
g|---------------------|  Play this four times.
d|-2-5-7-9-2-5-7-8-7-5-|
a|-2-x-x-x-2-x-x-x-x-x-|
e|-0-3-5-7-0-3-5-6-5-3-|





PLAY IN THIS ORDER:
Intro
Verse
PreChorus
Chorus
Verse
PreChorus
Chorus
Chorus
Break
Break
PreChorus
Chorus
Chorus

Time took to figure out: 2 hrs.




I think this also sounds good for the other half of the chorus:



ALTERNATIVE CHORUS (2ND HALF)
e|---------------------------|
b|---------------------------|
g|-2-2-x-x-2-2-x-x-7-7/6/5/2-|  Play this three times.
d|-2-2-x-x-2-2-x-x-7-7/6/5/2-|
a|-0-0-x-x-0-0-x-x-5-5/4/3/0-|
e|---------------------------|

On the forth time:
e|-------------------|
b|-------------------|
g|-2-2-x-x-2-2-x-x-7-| (Let x577xx ring)
d|-2-2-x-x-2-2-x-x-7-|
a|-0-0-x-x-0-0-x-x-5-|
e|-------------------|

When you are doing the "slides" from 577 to 220 for the end, make sure you strum, NOT
slide. I put slide because in a way you are but its mostly strumming and sliding quickly
You stay at the 466 and 355 for just like a half second then go down. It's very quick
and I think it adds a bit of style to it. It sounds nice.

I hope everyone likes this!!!!!

In addition to Chords / Tabs Lifehouse - Gods Lemonade (First Version), we offer an excerpt from a random book.Where does she come from in the woods of Louisiana? To find out, they have to push open the door and enter the fairy tale.

LiveInternet