AllChordsTabs.com

Marduk - Limbs Of Worship (First Version) Chords and Tabs


Artists:
Chords and Tabs » M » Marduk - Limbs Of Worship (First Version)

Marduk - Limbs Of Worship (First Version)

Marduk - Limbs Of Worship (First Version) Chords / Tabs

Marduk - Limbs Of Worship First Version: chords and tabs for the song. Watch chords and tablatures for all songs of the singer (group) Marduk. Other chords and tabs for the "Limbs Of Worship" can find at the bottom of the page.

Band:  Marduk

Copyright (c)  (Blooddawn) (2007)
Version 1.0 - (April 2007)



.  - palm mute           /  - slide up to
  - slide down to       ~  - vibrato
h  - hammer on           b  - Bend
p  - pull off            Suffixes for bend
t  - tap                 f  - full bend    h - half bend
ph - pinched harmonic    q  - quarter bend t - tap bend
*  - see comment         ^  - Hold bend    r release bend
x  - Stuccatto           ~  - vibrato bend
,  - slight palm mute    () - ghost note, sustained note
"  - tremolo note        <> - Trill

Tuning E A D G B E


Riff A

|---------------------------------------------------|
|---------------------------------------------------|
|o-------------------------------------------------o|
|o----9/10/9----10--9--13--10---9/10/9---------10--o|
|-----7/8-/7----8---7--11--8----7/-8/7----9-10-8----|
|---0---------0---------------0---------0-7--8------|


Riff A II

|------------------------------------------------|
|------------------------------------------------|
|o----------------------------------------------o|
|o----10--9----10--9--13--10---10--9--------10--o|
|-----8---7----8---7--11--8----8---7---9-10-8----|
|---0-------0---------------0--------0-7--8------|


Riff A repeat


Riff A III

|----------------------------------|
|----------------------------------|
|----------------------------------|
|-----9/10/9----10--9--13--10--9---|
|-----7/8-/7----8---7--11--8---7---|
|---0---------0----------------0---|


Riff B

|--------------------------------------------------------------|
|--------------------------------------------------------------|
|o-------------------------------------------------------------|
|o-------------------------------------------------------------|
|----------7-7-8-8-8-8-10-10-11-11-10-10-11-11-13-13-11-11-10--|
|--0-0-7-7-----------------------------------------------------|

|-----------------------------------------------------------|
|-----------------------------------------------------------|
|----------------------------------------------------------o|
|----------------------------------------------------------o|
|----------7-7-8-8-8-8-10-10-11-11-10-10-8-8-10-10-8-8-7-7--|
|--0-0-7-7--------------------------------------------------|


Riff C: 2 guitars, second is just rythm

|---------------------------------------------------------|
|---------------------------------------------------------|
|o-------------------------------------------------------o|
|o--7-7-8-8-5-5-7-7-7-7-7-7-7-7-7-7-8-8-7-7-7-7-7-7-7-7--o|
|-------------------------------------------8-8-8-8-8-8---|
|---------------------------------------------------------|
|                                                         |
|---------------------------------------------------------|
|---------------------------------------------------------|
|o-------------------------------------------------------o|
|o--2-2-2-2-2-2-2-2-2-2-2-2-2-2-2-2-2-2-2-2--------------o|
|---0-0-0-0-0-0-0-0-0-0-0-0-0-0-0-0-0-0-0-0-3-3-3-3-3-3---|
|-------------------------------------------1-1-1-1-1-1---|

Riff A repeat

Riff B repeat

Riff C repeat


Riff D

|------------------------------|
|------------------------------|
|o----------------------------o|
|o----------------------------o|
|---43-3--43-3--43-3--43-3-|
|---21-1--21-1--21-1--21-1-|

Riff C repeat


Riff D I

|-----------------------------------------------------|
|-----------------------------------------------------|
|-----------------------------------------------------|
|-----------------------------------------------------|
|---43-3/43-3/43-3-2-2-2-43-3/43-3/43-3-3-3-3---|
|---21-1/21-1/21-1-0-0-0-21-1/21-1/21-1-1-1-1---|


Riff E

|-----------------|
|-----------------|
|o---------------o|
|o--5---7--8--9--o|
|---3---5--6--7---|
|---3---5--6--7---|


Riff G

|------------------------------------------------------|
|------------------------------------------------------|
|o----------------------------------------------------o|
|o--43-3/43-3/43-3-2-2-2--43-3/43-3/43-3--------o|
|---21-1/21-1/21-1-0-0-0--21-1/21-1/21-1-2-2-2---|
|----------------------------------------------0-0-0---|


Riff E repeat

Riff G repeat

Riff A repeat

Riff B repeat

Riff C repeat

End Song on A5

THE END

In addition to Chords / Tabs Marduk - Limbs Of Worship (First Version), we offer an excerpt from a random book.The village boys, who were invited to the estate, were shy and could not turn around freely.

LiveInternet