AllChordsTabs.com

Mars Volta - Noctourniquet (First Version) Chords and Tabs


Artists:
Chords and Tabs » M » Mars Volta - Noctourniquet (First Version)

Mars Volta - Noctourniquet (First Version)

Mars Volta - Noctourniquet (First Version) Chords / Tabs

Mars Volta - Noctourniquet First Version: chords and tabs for the song. Watch chords and tablatures for all songs of the singer (group) Mars Volta. Other chords and tabs for the "Noctourniquet" can find at the bottom of the page.

-------------------------------------------------------------------------------
NOCTOURNIQUET - The Mars Volta
-------------------------------------------------------------------------------


Tuning:

e|---------------------------------------------------------------------------|
B|-----1-----0------1-----0-----------1-----0-----1-----0--------------------|
G|--------------------------0-----------------------------0------------------|
D|---2-----0------2-----0-----------2-----0-----2-----0----------------------|
A|-0-----3------0-----3-----------0-----3-----0-----3-------3----------------|
E|-----------------------------3---------------------------------------------|

e|---------------------------------------------------------------------------|
B|-----4-----4----------3-----3----------------------------------------------|
G|---------------0----------------0------------------------------------------|
D|---0-----0----------0-----0------------------------------------------------|
A|-6-----6-----6----5-----5-----5--------------------------------------------|
E|---------------------------------------------------------------------------|

0:52 - GUITAR 1

e|---------------------------------------------------------------------------|
B|---5--5------3-------3-0----6---6-----10--------10-------------------------|
G|----5---5------0-------------7---7-------10-------10-----------------------|
D|------------------------------0----------------------0---------------------|
A|---------------------------------------------------------------------------|
E|-5---------3-----(3)------6--------10-------(10)---------------------------|


0:52 - GUITAR 2

e|---------------------------------------------------------------------------|
B|---------------------------------------------------------------------5-----|
G|------------------5h7b9r7-5/7----------------------(0)-----5-7b9p7-5-------|
D|-7bbb9-x--7b9r7-5-------------5-----7bbb9-x-7b9r7------5h7-----------------|
A|--------------------------------------------------5------------------------|
E|---------------------------------5----------------------------------------|


1:15
e|-----------5~--------0-------------------x-0-----0-------------------------|
B|------7b8--5~----10---------7b8--0---5b-x-4b5r4-0-------------------------|
G|------8b9--5~------------(5)-8b9---05----x---------------------------------|
D|----------------------(7)----------------x---------/7----------------------|
A|-0~---------------------------------------------------5-5/7----------------|
E|------------------------------------------------------------5-5/7-3-3/5(0)|

1:30
e|-0------------x-0---5-------(5)---------------------------0----------------|
B|-7b8--0---(5)-x-4b5----7b8r7-5-----(0)---7b8r7-----5---0--4b5r4p0----------|
G|-8b9-(0)---5--x--------5-----5---x-(0)---5----0----5---0h5-----------------|
D|--------------x--------x-----x---x-(0)---x------h5(5)--0-------------------|
A|--------(0)------------0-----0---x-(0)---0---------------------------------|
E|---------------------------------------------------------------------------|


(2:44)
e|-(5)-----0--3--1---0---3---5--8--------------------------------------------|
B|--6---5--5--2--3---3---5---6--8--------------------------------------------|
G|--0---2--0--0--0---0---0---0--0--------------------------------------------|
D|--7---5--x--2--0---3---4---x--x--------------------------------------------|
A|--5---3--4--1--x---x---0---x--x--------------------------------------------|
E|---------------3---1-------6--8--------------------------------------------|

(3:58)
e|-5--5--5--0----5-5-5------------------8-8--7-7-----------------------------|
B|-5--5--5--3b0--5-5-5------------------8-8--7-7-----------------------------|
G|-5--5--5-------5-5-5--7b9p7b9p7b9p7---8-8--7-7-----------------------------|
D|---------------------------------------------------------------------------|
A|---------------------------------------------------------------------------|
E|---------------------------------------------------------------------------|



************************************

| /   slide up
|    slide down
| h   hammer-on
| p   pull-off
| ~   vibrato
| +   harmonic
| x   Mute note
| b   Bend
| pb  Pre-bend
| br  Bend release
| pbr Pre-bend release
| brb Bend release bend

************************************

In addition to Chords / Tabs Mars Volta - Noctourniquet (First Version), we offer an excerpt from a random book.“No, it's okay,” said Gorodnischev, getting up, and fled the battlefield with a cowardly gait.

LiveInternet