AllChordsTabs.com

Killswitch Engage - Lost (Second Version) Chords and Tabs


Artists:
Chords and Tabs » K » Killswitch Engage - Lost (Second Version)

Killswitch Engage - Lost (Second Version)

Killswitch Engage - Lost (Second Version) Chords / Tabs

Killswitch Engage - Lost Second Version: chords and tabs for the song. Watch chords and tablatures for all songs of the singer (group) Killswitch Engage. Other chords and tabs for the "Lost" can find at the bottom of the page.

holy cr*p i spent about 2 days on this tab because i listened to the song about 200
and im still not sure its 100% accurate. At firt glance this song sounds easy, but it's not
neways here it is. if u have ne corrections let me know and i'll make them. enjoy

table of contents:
~: let ring
^:pick scratch
*: palm mute
/: slide up (to the right)
:slide down (left)
x: mute string

note: On the sliding parts of the songs involving the octaves, you will note that not
octaves have the x indicating to mute the string in between. this means that u slide to
note without picking it. so basically only pick the notes with the x in between the two.

Intro
guitar 1

|---------------------------------------------------------------------|
|---------------------------------------------------------------------|
|---------------------------------------------------------------------|
|---------------------------------------------------------------------|
|-0~---------------------------3~-------0~----------------------------|
|-0~---------------------------3~-------0~----------------------------|

guitar 2

|---------------------------------------------------------------------|
|-10~----10~----10~----10~----10~----10~----10~----10~----10~---------|
|---10~----10~----10~----10~----10~----10~----10~----10~----10~-------|
|-----14~----14~----14~----14~----14~----14~----14~----14~----14~-----|
|---------------------------------------------------------------------|
|---------------------------------------------------------------------|


guitar 1 cont

|---------------------------------------------------------------------|
|---------------------------------------------------------------------|
|---------------------------------------------------------------------|
|---------------------------------------------------------------------|
|----6~--------0~------------------------------3~---------8~----------|
|----6~--------0~------------------------------3~---------8~----------|

guitar 2 cont

|---------------------------------------------------------------------|
|-10~-----10~-----10~-----10~-----10~-----10~----10~-----10~----------|
|---10~-----10~-----10~-----10~-----10~-----10~----10~-----10~--------|
|-----14~-----14~-----14~-----14~-----14~-----14~----14~-----14~------|
|---------------------------------------------------------------------|
|---------------------------------------------------------------------|

guitar 1 cont

|---------------------------------------------------------------------|
|---------------------------------------------------------------------|
|---------------------------------------------------------------------|
|---------------------------------------------------------------------|
|--------------------------6~--------0~-------------------------------|
|--------------------------6~--------0~-------------------------------|

guitar 2 cont

|---------------------------------------------------------------------|
|-10~-----10~-----10~-----10~-----10~-----10~-----10~-----10~---------|
|---10~-----10~-----10~-----10~-----10~-----10~-----10~-----10~-------|
|-----14~-----14~-----14~-----14~-----14~-----14~-----14~-----14~-----|
|---------------------------------------------------------------------|
|---------------------------------------------------------------------|

guitar 1 cont

|---------------------------------------------------------------------|
|---------------------------------------------------------------------|
|---------------------------------------------------------------------|
|---------------------------------------------------------------------|
|----3~----------0~----------------------------------6~----------0~---|
|----3~----------0~----------------------------------6~----------0~---|


guitar 2 cont

|-----------------------------------------------------------------------|
|-10~-----10~-----10~-----10~-----10~-----10~-----10~-----10~----10~----|
|---10~-----10~-----10~-----10~-----10~-----10~-----10~-----10~----10~--|
|-----14~-----14~-----14~-----14~-----14~-----14~-----14~-----14~----14-|
|-----------------------------------------------------------------------|
|-----------------------------------------------------------------------|

guiar 1 cont

|--------------------------------------------------------------------|
|--------------------------------------------------------------------|
|--------------------------------------------------------------------|
|--------------------------------------------------------------------|
|-------------------3~-------8~--8-8-8-8-8-8-8-8-8-0-6-6-121--------|
|-------------------3~-------8~--8-8-8-8-8-8-8-8-8-0-6-6-121--------|
*
guitar 2 cont

|--------------------------------------------------------------------|
|-10~---10~---10~---10~---10~---10~---10~---10~---10~----------------|
|---10~---10~---10~---10~---10~---10~---10~---10~---10~--------------|
|-----14~---14~---14~---14~---14~---14~---10~---14~---14~------------|
|--------------------------------------------------------121--------|
|--------------------------------------------------------121--------|

Interlude

guitars 1 & 2

|----------------------------------------------------------------------|
|----------------------------------------------------------------------|
|----------------------------------------------------------------------|
|----------------------------------------------------------------------|
|0-000-0-0-5-5-5-5-0-0-1-1-1-1-1-1-111-1-1-5-5-5-5-0-0-1-1-0-0-0-------|
|0-000-0-0-5-5-5-5-0-0-1-1-1-1-1-1-111-1-1-5-5-5-5-0-0-1-1-0-0-0-------|
*** * * * * * * * * * * * * *   *** * * * * * * * * * * * * *

guitars 1 & 2 cont

|---------------------------------------------------------------------|
|---------------------------------------------------------------------|
|---------------------------------------------------------------------|
|---------------------------------------------------------------------|
|-0-000-0-0-5-5-5-5-0-0-1-1-1-1-1-1-111-1-1-5-5-5-5-0-0-1-1-0-121----|
|-0-000-0-0-5-5-5-5-0-0-1-1-1-1-1-1-111-1-1-5-5-5-5-0-0-1-1-0-121----|
*** * * * * * * * * * * * * *   *** * * * * * * * * * * *

pre-chorus
guitars 1 & 2

|---------------------------------------------------------------------|
|---------------------------------------------------------------------|
|---------------------------------------------------------------------|
|---------------5---7---------------------------5---7-----------------|
|-0-000-0-0-5-0-3-0-5-0-1-1-111-1-1-111-1-1-5-0-3-0-5-0-1-0-0-121----|
|-0-000-0-0-5-0---0---0-1-1-111-1-1-111-1-1-5-0---0---0-1-0-0-121----|
*** * *   *   *   *     *** *   *** * *   *   *   *     *

chorus
guitar 1

|--------------------------------------------------------------------|
|--------------------------------------------------------------------|
|--------------------------------------------------------------------|
|--------------------------------------------------------------------|
|-5~-1~-1~-1~-------3~---0---1---0---5~--0-5-0-1~-1~-----------------|
|-5~-1~-1~-1~-------3~-3---3---3---3-5~--0-5-0-1~-1~-----------------|
*   *   *   *     *   *
guitar 2

|---------------------------------------------------------------------|
|---------------------------------------------------------------------|
|----------7~/87/5-5~------------------------------------------------|
|----------x--------x-------------------------------------------------|
|----------5~/65/3-3~------------------------------------------------|
|---------------------------------------------------------------------|

guitar 1 cont

|--------------------------------------|
|--------------------------------------|
|--------------------------------------|
|--------------------------------------|
|-1~------3~---0---1---0---------------|
|-1~------3~-3---3---3---3-------------|
*   *   *   *
guitar 2 cont

let ring though
|--------------------------------------|
|--------------------------------------|
|-7/87-5-5~---------------------------|
|-x-------x----------------------------|
|-5/65-3-3~----------121-------------|
|---------------------121-------------|

pre-chorus 2
guitars 1 & 2

|-------------------------------------------------------------------|
|-------------------------------------------------------------------|
|-------------------------------------------------------------------|
|---------------5---7---------------------------5---7---------------|
|-0-000-0-0-5-0-3-0-5-0-1-1-111-1-1-111-1-1-5-0-3-0-5-0-1-0-000-0---|
|-0-000-0-0-5-0---0---0-1-1-111-1-1-111-1-1-5-0---0---0-1-0-000-0---|
*** * *   *   *   *     *** *   *** * *   *   *   *     *** *

pre-chorus cont
guitars 1 & 2

|-------------------------------------------------------------------|
|-------------------------------------------------------------------|
|-------------------------------------------------------------------|
|---------------5---7---------------------------5---7---------------|
|-0-000-0-0-5-0-3-0-5-0-1-1-111-1-1-111-1-1-5-0-3-0-5-0-1-0-0-121--|
|-0-000-0-0-5-0---0---0-1-1-111-1-1-111-1-1-5-0---0---0-1-0-0-121--|
*** * *   *   *   *     *** *   *** * *   *   *   *     *

Interlude 2

guitars 1 & 2

|--------------------------------------------------------------------|
|--------------------------------------------------------------------|
|--------------------------------------------------------------------|
|--------------------------------------------------------------------|
|-0-000-0-0-5-5-5-5-0-0-1-1-1-1-1-1-111-1-1-5-5-5-5-0-0-1-1-0-0-0----|
|-0-000-0-0-5-5-5-5-0-0-1-1-1-1-1-1-111-1-1-5-5-5-5-0-0-1-1-0-0-0----|
* *** * * * * * * * * * * * * *   *** * * * * * * * * * * * * *

guitars 1 & 2 cont

|--------------------------------------------------------------------|
|--------------------------------------------------------------------|
|--------------------------------------------------------------------|
|--------------------------------------------------------------------|
|-0-000-0-0-5-5-5-5-0-0-1-1-1-1-1-1-111-1-1-5-5-5-5-0-0-1-1-0-121---|
|-0-000-0-0-5-5-5-5-0-0-1-1-1-1-1-1-111-1-1-5-5-5-5-0-0-1-1-0-121---|
*** * * * * * * * * * * * * *   *** * * * * * * * * * * *

chorus 2
guitar 1

|-----------------------------------------------------|
|-----------------------------------------------------|
|-----------------------------------------------------|
|-----------------------------------------------------|
|5~-1~-1~-1~--------3~---0---1---0---5~-0-5-0-1~-1~---|
|5~-1~-1~-1~--------3~-3---3---3---3-5~-0-5-0-1~-1~---|
*   *   *   *    *   *
guitar 2

|-----------------------------------------------------|
|-----------------------------------------------------|
|---------7~/87/-5-5~--------------------------------|
|---------x---------x---------------------------------|
|---------5~/65/-3-3~--------------------------------|
|-----------------------------------------------------|

guitar 1

|------------------------------------------------|
|------------------------------------------------|
|------------------------------------------------|
|------------------------------------------------|
|-1~---------3~---0---1---0---5~-------1~-1~-----|
|-1~---------3~-3---3---3---3-5~-------1~-1~-----|
*   *   *   *
guitar 2 cont

|---------------------------------------------|
|---------------------------------------------|
|---------------------------------------------|
|-7~/87/10-10~---------------7~-10-10-3~-3~--|
|-x----------x----------------x---x--x-x--x---|
|-5~/65/-8--8~---------------5~--8--8-1~-1~--|

guitar 1 cont

|---------------------------------------------|
|---------------------------------------------|
|---------------------------------------------|
|---------------------------------------------|
|-1~--------3~---0---1---0---5~-0-5-0-1~-1~---|
|-1~--------3~-3---3---3---3-5~-0-5-0-1~-1~---|
*   *   *   *    *   *

guitar 2 cont

|---------------------------------------------|
|---------------------------------------------|
|-7~/87/-5-5~---------------7~/10-10-3~-3~---|
|-x---------x----------------x------x-x--x----|
|-5~/65/-3-3~---------------5~/-8--8-1~-1~---|
|---------------------------------------------|


chorus 3
guitar 1 cont

|----------------------------|
|----------------------------|
|----------------------------|
|----------------------------|
|--1~-------3~---0---1---0---|
|--1~-------3~-3---3---3---3-|

guitar 2 cont

|----------------------------|
|----------------------------|
|--8~/985-5~---------------|
|--x--------x----------------|
|--5~/653-3~---------------|
|----------------------------|

Interlude 3
guitar 1

|-----------------------------------------------------------------|
|-----------------------------------------------------------------|
|-----------------------------------------------------------------|
|-----------------------------------------------------------------|
|-5-5-5-5-5-5-5-5-5-5-5-5-5-5-5-5-1-1-1-1-1-1-1-1-3-3-3-3-3-3-3-3-|
|-5-5-5-5-5-5-5-5-5-5-5-5-5-5-5-5-1-1-1-1-1-1-1-1-3-3-3-3-3-3-3-3-|
* * * * * * * * * * * * * * * * * * * * * * * * * * * * * * * *

guitar 2

|-----------------------------------------------------------------|
|-----------------------------------------------------------------|
|----10----10----10----10----1010-----8----10--12----10----12--14-|
|-----x-----x-----x-----x-----x-x-----x-----x---x-----x-----x---x-|
|-----8-----8-----8-----8-----8-8-----6-----8--10-----8----10--12-|
|-----------------------------------------------------------------|

guitar 3
clean
|-----------------------------------------------------------------|
|-7~--------------------------------------------------------------|
|-7~--------------5~----3~----2~--0~--------------2~--------------|
|-5~----------------------------------------------3~--------------|
|-----------------------------------------------------------------|
|-----------------------------------------------------------------|


guitar 1 cont

|-------------------------------------------------------------------|
|-------------------------------------------------------------------|
|-------------------------------------------------------------------|
|-------------------------------------------------------------------|
|-5-5-5-5-5-5-5-5-5-5-5-5-5-5-5-5-1-1-1-1-1-1-1-1-3-3-3-3-3-3-121--|
|-5-5-5-5-5-5-5-5-5-5-5-5-5-5-5-5-1-1-1-1-1-1-1-1-3-3-3-3-3-3-121--|
* * * * * * * * * * * * * * * * * * * * * * * * * * * * * *

guitar 2 cont

|-----8-----8-----8-----8-----8-8-----------------------------------|
|-----x-----x-----x-----x-----x-x-----------------------------------|
|----10----10----10----10----1010-----8----10--12----10----12--14---|
|-------------------------------------x-----x---x-----x-----x---x---|
|-------------------------------------8----10---8----10----12--12---|
|-------------------------------------------------------------------|

guitar 3 cont
clean
|-----------------------------------------------------------------|
|-7~--------------------------------------------------------------|
|-7~--------------5~----3~----2~--0~--------------2~--------------|
|-5~----------------------------------------------3~--------------|
|-----------------------------------------------------------------|
|-----------------------------------------------------------------|

guitar 1 cont

|------------------------------------------------------------------|
|------------------------------------------------------------------|
|------------------------------------------------------------------|
|-----8-----8-----8-----8-----7-7-----5-----5---5-----7-----5---7--|
|---5-----5-----5-----5-----5-------1-----1---------3-----3--------|
|-5-*---5-*---5-*---5-*---5-*-----1-*---1-*---1---3-*---3-*---3----|
*     *     *     *     *       *     *     *   *     *     *

guitar 2 cont

|------------------------------------------------------------------|
|-----6-----6-----6-----6-----6-6-----6-----6---6-----6-----6---6--|
|------------------------------------------------------------------|
|---8-----8-----8-----8-----8-------8-----8---------7-----7--------|
|-5-*---5-*---5-*---5-*---5-*-----6-*---6-*---6---8-*---8-*---8----|
|-*-----*-----*-----*-----*-------*-----*-----*---*-----*-----*----|


guitar 3 cont
clean
|------------------------------------------------------------------|
|-7~--------------------------------------3~-----------------------|
|-7~--------------5~----3~----2~--0~--------------2~---------------|
|-5~----------------------------------------------3~---------------|
|------------------------------------------------------------------|
|------------------------------------------------------------------|

guitar 1 cont

|------------------------------------------------------------------|
|------------------------------------------------------------------|
|------------------------------------------------------------------|
|-----8-----8-----8-----8-----7-7-----5-----5---5------------------|
|---5-----5-----5-----5-----5-------1-----1-------3-3-3-3-3-3-3-3--|
|-5-*---5-*---5-*---5-*---5-*-----1-*---1-*---1---3-3-3-3-3-3-3-3--|
*     *     *     *     *       *     *     *

guitar 2 cont

|-------------------------------------------------------------------|
|-----6-----6-----6-----6-----6-6-----6-----6---6-------------------|
|-------------------------------------------------------------------|
|---8-----8-----8-----8-----8-------8-----8-------------------------|
|-5-*---5-*---5-*---5-*---5-*-----6-*---6-*---6---^^^^^^^^^^^^^^^---|
|-*-----*-----*-----*-----*-------*-----*-----*---^^^^^^^^^^^^^^^---|

guitar 3 cont

|------------------------------------------------------------------|
|-7~---------------------------------------------------------------|
|-7~--------------5~----3~----2~--0~--------------2~---------------|
|-5~----------------------------------------------3~---------------|
|------------------------------------------------------------------|
|------------------------------------------------------------------|

chorus 3
guitar 1

|----------------------------------------------------------------|
|----------------------------------------------------------------|
|----------------------------------------------------------------|
|----------------------------------------------------------------|
|-5~--------1~--1~-1~-------3~----0---1---0---5~--0-5-0-1~--1~---|
|-5~--------1~--1~-1~-------3~--3---3---3---3-5~--0-5-0-1~--1~---|
*   *   *   *     *   *


guitar 2

|----------------------------------------------------------------|
|----------------------------------------------------------------|
|-7~/10-10--3~--3~-7~/875-5~----------------7~/10-10--3~--3----|
|-x------x--x---x--x--------x-----------------x------x--x---x----|
|-5~/-8--8--1~--1~-5~/653-3~----------------5~/-8--8--1~--1----|
|----------------------------------------------------------------|

guitar 1 cont

|-----------------------------------------------------------|
|-----------------------------------------------------------|
|-----------------------------------------------------------|
|-----------------------------------------------------------|
|-1~---------3~---0---1----0-----5--5--5--0--5--0--1~--1~---|
|-1~---------3~-3---3---3----3---5--5--5--0--5--0--1~--1~---|
*   *   *    *            *     *
guitar 2 cont

|------------------------------------------------------------|
|------------------------------------------------------------|
|-7~/87/10-10~--------12-12-14-14-15-15-15-15-14-10~-10~----|
|-x---------------------x--x--x--x--x--x--x--x--x--x---x-----|
|-5~/65/-8--8~--------10-10-12-12-13-13-13-13-12--8~--8~----|
|------------------------------------------------------------|


guitar 1 cont

|------------------------------------------------------|
|------------------------------------------------------|
|------------------------------------------------------|
|------------------------------------------------------|
|-1~---------3~---0---1----0-----5--5--5--0--5--0--1~--|
|-1~---------3~-3---3---3-----3--5--5--5--0--5--0--1~--|
*   *   *     *           *     *
guitar 2 cont

|-------------------------------------------------------|
|-------------------------------------------------------|
|-7~/87/10-10~--------12-12-14-14-15-15-15-15-14-15~---|
|-x--x--x-x--x----------x--x--x--x--x--x--x--x--x--x----|
|-5~/65/-8--8~--------10-10-12-12-13-13-13-13-12-13~---|
|-------------------------------------------------------|

guitar 1 cont

|------------------------------------------------|
|------------------------------------------------|
|------------------------------------------------|
|------------------------------------------------|
|--1~-------1~---------3~------------------------|
|--1~-------1~---------3~------------------------|

guitar 2 cont

|------------------------------------------------|
|------------------------------------------------|
|----15-14--7~/87/10-10~------------------------|
|-----x--x--x----------X-------------------------|
|----13-12--5~/65/-8--8~------------------------|
|------------------------------------------------|

outro
guitar 1

|------------------------------------------------------------------|
|------------------------------------------------------------------|
|------------------------------------------------------------------|
|------------------------------------------------------------------|
|-5-5-5-5-5-5-1-1-1-1-1-1-1-1-1-1-1-1-1-1-1-1-3-3-3-3-3-3-3-3-3-3--|
|-5-5-5-5-5-5-1-1-1-1-1-1-1-1-1-1-1-1-1-1-1-1-3-3-3-3-3-3-3-3-3-3--|
*                               *
guitar 2

|10~---10~---13~---13~---13~-----10~---10~----7~----7~----7~-------|
|--11~---11~---11~---11~---11~-----11~---11~---10~---10~---10~-----|
|----12~---12~---12~---12~---12~-----12~---12~---10~---10~---10~---|
|------------------------------------------------------------------|
|------------------------------------------------------------------|
|------------------------------------------------------------------|

guitar 1 cont

|-------------------------------------------------------------|
|-------------------------------------------------------------|
|-------------------------------------------------------------|
|-------------------------------------------------------------|
|-5-5-5-5-5-0-1-1-1-1-1-1-1-1-1--1~-------------3~----5~------|
|-5-5-5-5-5-0-1-1-1-1-1-1-1-1-1--1~-------------3~----5~------|
*
guitar 2 cont

|10~---10~---13~---13~---13~----13~---------------8~---10~----|
|--11~---11~---11~---11~---11~---11~------------10~---11~-----|
|----12~---12~---12~---12~---12~--12~----------10~---12~------|
|-------------------------------------------------------------|
|-------------------------------------------------------------|
|-------------------------------------------------------------|

In addition to Chords / Tabs Killswitch Engage - Lost (Second Version), we offer an excerpt from a random book.Being in comfort, you feel good, you are fed, dressed, words will not say bad.

LiveInternet