AllChordsTabs.com

Lenny Kravitz - Fly Away (Second Version) Chords and Tabs


Artists:
Chords and Tabs » L » Lenny Kravitz - Fly Away (Second Version)

Lenny Kravitz - Fly Away (Second Version)

Lenny Kravitz - Fly Away (Second Version) Chords / Tabs

Lenny Kravitz - Fly Away Second Version: chords and tabs for the song. Watch chords and tablatures for all songs of the singer (group) Lenny Kravitz. Other chords and tabs for the "Fly Away" can find at the bottom of the page.

-|------------------------------|-------------------------------|-------------
-|------------------------------|----------------7--7-7-7-8-x-x-|-------------
-|-6--6-6-6-x-------9-9-9-9-x-x-|-4--4-4-4-4-x-x-7--7-7-7-7-x-x-|-------------
-|-7--7-7-7-x-8h10--10101010x-x-|-5--5-5-5-5-x-x-7--7-7-7-7-x-x-|-------------
-|-7--7-7-7-x-8h10--10101010x-x-|-5--5-5-5-5-x-x-5--5-5-5-5-x-x-|-------------
-|-5--5-5-5-x-8-----8-8-8-8-x-x-|-3--3-3-3-3-x-x----------------|-------------
V  V ^ V ^ V     V ^ V ^ V ^   V  V ^ V ^ V ^ V  V ^ V ^ V ^

-|------------------------------|---------------------------------------------
-|------------------------------|---------------------------------------------
-|------------------------------|---------------------------------------------
-|------7----------------10-----|-------5-------------------12----------------
-|------------------------------|---------------------------------------------
-|-4/5------------7/8-----------|-2/3--------------9/10-----------------------

In addition to Chords / Tabs Lenny Kravitz - Fly Away (Second Version), we offer an excerpt from a random book.Who, then, can keep track of the most complex complex of layers of creative conditions? But it is not for us to judge them.

LiveInternet