AllChordsTabs.com

Marilyn Manson - Disposable Teans (First Version) Chords and Tabs


Artists:
Chords and Tabs » M » Marilyn Manson - Disposable Teans (First Version)

Marilyn Manson - Disposable Teans (First Version)

Marilyn Manson - Disposable Teans (First Version) Chords / Tabs

Marilyn Manson - Disposable Teans First Version: chords and tabs for the song. Watch chords and tablatures for all songs of the singer (group) Marilyn Manson. Other chords and tabs for the "Disposable Teans" can find at the bottom of the page.

Tuning:Dropped D

Tab Explanation
^    = Bend
pm... = Palm mute

I decided to to tab this out because
every tab I have seen for this song
is a piece of cr*p, so I here we go kids.

Riff A intro & chorus
|-------------------------------------------------------------|
|-------------------------------------------------------------|
|-7-7-7/-5-/-10/-7-7----7-7-7-7/-5-/--7-----------------------|
|-7-7-7/-5-/-10/-7-7----7-7-7-7/-5-/--7----------0-0-0-0-0-0--|
|-5-5-5/-3-/-8-/-5-5----5-5-5-5/-3-/--5----------0-0-0-0-0-0--|
|------------------------------------------------0-0-0-0-0-0--|
pm.............
Riff B verse
|----------------------------------------------------------------------------|
|----------------------------------------------------------------------------|
|----------------------------------------------------------------------------|
|0---------------0-0-----------------------0-----------0-0-----------3^-3----|
|0---------------0-0-----------------------0-----------0-0-----------3^-3----|
|0---0--0--0--0--0-0--0--0--0--0--0--0--0--0--0-0-0-0--0-0--0-0-0-0--3^-3----|
pm...........    pm....................  pm.......     pm.......

Riff C bridge

|-----------------------|
|-----------------------|
|-5--5--5--5--5--5--5--5|
|-5--5--5--5--5--5--5--5|
|-3--3--3--3--3--3--3--3| Let Ring
|-----------------------|

Riff D interlude- on last 5-5-6-6 graduly release palm mute
3-3-4-4
|-------------------------------------------------------------|
|-------------------------------------------------------------|
|-------------------------------------------------------------|
|---7-7-7-7--10-10-10-10--7-7-7-7--5-5-6-6--------------------|
|---5-5-5-5--8--8--8--8---5-5-5-5--3-3-4-4--------------------|
|-------------------------------------------------------------|
pm..........................................

Thats It.
Easy As p**s.


Riff A x 4
Riff B x 3
Riff A x 2
Riff B x 2
Riff A x 4
Riff B x 2
Riff A x 6
Riff C x 1
Riff D x 2
Riff A x 12

In addition to Chords / Tabs Marilyn Manson - Disposable Teans (First Version), we offer an excerpt from a random book.Admiration for the famous Frenchman, who became famous as a writer and pilot, and shame for himself.

LiveInternet