AllChordsTabs.com

Joe Satriani - Andalusia (First Version) Chords and Tabs


Artists:
Chords and Tabs » J » Joe Satriani - Andalusia (First Version)

Joe Satriani - Andalusia (First Version)

Joe Satriani - Andalusia (First Version) Chords / Tabs

Joe Satriani - Andalusia First Version: chords and tabs for the song. Watch chords and tablatures for all songs of the singer (group) Joe Satriani. Other chords and tabs for the "Andalusia" can find at the bottom of the page.

(Intro)
-------------------------------------------------------------------------------
Andalusia - Joe Satriani
-------------------------------------------------------------------------------
Tuning: standard


Flamenco-esque Intro


e|--------------------------------------------------------------------------------------|
b|-------------------------------------------------------------------------------8-10---|
g|-7h9-9999-7h9-9999-7h9-9999-7h9-9-9-9-9-9p7---7---7-9-9---7--9-9-9/11-11/1211--------|
d|--------------------------------------------9-----------------------------------------|
a|--------------------------------------------------------------------------------------|
e|--------------------------------------------------------------------------------------|

e|--------------------------------------------------------------------------------------|
b|-12-10-----10--12--10------10----------------------------------------10-12-12/13-10---|
g|-------12--------------12------11--12--9--11--7---7---7/9-9--9-11-12------------------|
d|------------------------------------------------9---9---------------------------------|
a|--------------------------------------------------------------------------------------|
e|--------------------------------------------------------------------------------------|

e|----------------------------------------------------------------------------------|
b|----------------------------------------------------------------------------------|
g|-11-9--7------------------------------9-----7~------------------------------------|
d|---------10--9-7--------------------7---75-----10-9-7----9-7---------------------|
a|-------------------10-9-7--9----7----------------------10-----10--9/109-7-9----7-|
e|-----------------------------10----------------------------------------------10---|

harmonics
e|---------------------------------(5)-|
b|-----(7)-------(12)--------------(7)-|
g|-(7)------(12)-------------------(7)-|
d|--------------------(12)-(7)-(7)-(7)-|
a|--------------------(12)-(7)-(7)-(7)-|
e|-------------------------------------|

e|-----------------------------------------------------------------------------------|
b|------------------------------------------------------------10-10------------------|
g|-9--9h11--11-11~--11p12-11--9--9--9~--7--9--9h11--11--11-----------12-11-9--9--9~--|
d|-----------------------------------------------------------------------------------|
a|-----------------------------------------------------------------------------------|
e|-----------------------------------------------------------------------------------|

e|-----------------------------------------------------------------------------|
b|-------------10--10h12-12-12-10-10-12--12h13p12p10-12-10----10---------------|
g|-----9-11-12---------------------------------------------12----12-11-9-11-11-|
d|--12-------------------------------------------------------------------------|
a|-----------------------------------------------------------------------------|
e|-----------------------------------------------------------------------------|

e|--------------------------------------------------------------------------|
b|--------------------------------------------------------------------------|
g|-9-7----------------------------------------------------------------------|
d|-----10-9-10-9-7----9--9--7--9--9h10p9--7-9-7-----------7-----------------|
a|-----------------10---------------------------10-9--10------10-9-7-9-5/7~-|
e|--------------------------------------------------------------------------|

e|----------------------------------------------------------------------------|
b|----------------------------------------------------------------------------|
g|----------------------------9-11-11h12-11-9-----9~--------------------------|
d|------7-9-9h10--9--7~--9-12------------------12----------7-9-9h10-9-7--5-7~-|
a|-9-10-----------------------------------------------9-10--------------------|
e|----------------------------------------------------------------------------|

e|----------------------------|
b|--------------10-10h12--12~-|
g|-9-12-11-12-9---------------|
d|----------------------------|
a|----------------------------|
e|----------------------------|

e|----------------------------------------------------------------------------|
b|----------------------------------------------------------10----10-12--13---|
g|---------------7/9-11-----9-11-12---------9-11-12---11-12-------------------|
d|--------7-9-10---------12---------9/10-12-----------------------------------|
a|-7-9-10---------------------------------------------------------------------|
e|----------------------------------------------------------------------------|

e|-----------------10------------10-12-14-15---14-15--14-15--17--17/19-|
b|--------10-12-13----13---12-13---------------------------------------|
g|--11-12--------------------------------------------------------------|
d|---------------------------------------------------------------------|
a|---------------------------------------------------------------------|
e|---------------------------------------------------------------------|

---tremolo picking notes with ** above them
---**----**----**----**-**-**-**-**-----------------------------------------------------|
e|-19-20-17-19-15-17-14-12-7--10-8--5--3h5---/2-0---------------------------------------|
b|------------------------------------------------1-0-----------------------------------|
g|----------------------------------------------------2-0-------------------------------|
d|--------------------------------------------------------2~-0-2-0-2--202020-2-0-2-0-2--|
a|--------------------------------------------------------------------------------------|
e|--------------------------------------------------------------------------------------|

e|-2-0-------------2-0--------------------2-0---------------------------------------(5)-|
b|-----1-1-------------1-0--------------------1-0------------------3-1-0------------(5)-|
g|---------2-0-------------2-0--------------------2-0----------2-4-------2-0--------(5)-|
d|-------------2---------------2-0-2-0-2--------------2--2-4-5---------------4-0-2~-----|
a|--------------------------------------------------------------------------------------|
e|--------------------------------------------------------------------------------------|

In addition to Chords / Tabs Joe Satriani - Andalusia (First Version), we offer an excerpt from a random book.Understand! I am going and writing to you and I do not know now - but then words follow that I cannot write.

LiveInternet