AllChordsTabs.com

Lenny Kravitz - Dig In (Second Version) Chords and Tabs


Artists:
Chords and Tabs » L » Lenny Kravitz - Dig In (Second Version)

Lenny Kravitz - Dig In (Second Version)

Lenny Kravitz - Dig In (Second Version) Chords / Tabs

Lenny Kravitz - Dig In Second Version: chords and tabs for the song. Watch chords and tablatures for all songs of the singer (group) Lenny Kravitz. Other chords and tabs for the "Dig In" can find at the bottom of the page.

Lenny Kravitz
Dig In

Intro
|-----------------------------------------------------------------------------------|
|-----------------------------------------------------------------------------------|
|-----------------------------------------------------------------------------------|x2
|-------------------------------------7-7-7-7-7-7-7-7-7-7-7-7-7-7-7-7---------------|
|-7---7-7-7-7-7-7---9-9-9-9-9-9-9-9---5-5-5-5-5-5-5-5-5-5-5-5-5-5-5-5---------------|
|-5---5-5-5-5-5-5---7-7-7-7-7-7-7-7-------------------------------------------------|

Verse 1
|-------------------------------|
|-------------------------------|
|-------------------------------|x7
|-------x-x-x-x--4--------------|
|-4-4---x-x-x-x--2-4-4----------|
|-2-2---x-x-x-x----2-2----------|

and then:
|--------------------|
|--------------------|
|--------------------|x1
|--------------------|
|-4-4-4-4-4-4-4------|
|-2-2-2-2-2-2-2------|






Pre-Chorus
|--------------------------------------------------------------------------------------|
|--------------------------------------------------------------------------------------|
|--------------------------------------------------------------------------------------|
|-7--7-7-7-7-7-7--------------------7--7-7-7-7-7-7-------------------------------------|
|-5--5-5-5-5-5-5---7--7-7-7-7-7-7---5--5-5-5-5-5-5---7--7-7-7-7-7-7--------------------|
|------------------5--5-5-5-5-5-5--------------------5--5-5-5-5-5-5--------------------|




|-------------------------------------------------------------------|
|-------------------------------------------------------------------|
|-------------------------------------------------------------------|
|-7--7-7-7-7-7-7---8-8-8-8-8-8-8-8---9-9-9-9-9-9-9-9-9--------------|
|-5--5-5-5-5-5-5---6-6-6-6-6-6-6-6---7-7-7-7-7-7-7-7-7--------------|
|-------------------------------------------------------------------|

Chorus
|-----------------------------------------------------------------------------------|
|-----------------------------------------------------------------------------------|
|-----------------------------------------------------------------------------------|x2
|-------------------------------------7-7-7-7-7-7-7-7-7-7-7-7-7-7-7-7---------------|
|-7---7-7-7-7-7-7---9-9-9-9-9-9-9-9---5-5-5-5-5-5-5-5-5-5-5-5-5-5-5-5---------------|
|-5---5-5-5-5-5-5---7-7-7-7-7-7-7-7-------------------------------------------------|







Verse 2
|-------------------------------|
|-------------------------------|
|-------------------------------|x7
|-------x-x-x-x---4-------------|
|-4-4---x-x-x-x---2-4-4---------|
|-2-2---x-x-x-x-----2-2---------|

and then:
|--------------------|
|--------------------|
|--------------------|x1
|--------------------|
|-4-4-4-4-4-4-4------|
|-2-2-2-2-2-2-2------|

Pre-Chorus
|--------------------------------------------------------------------------------------|
|--------------------------------------------------------------------------------------|
|--------------------------------------------------------------------------------------|
|-7--7-7-7-7-7-7--------------------7--7-7-7-7-7-7-------------------------------------|
|-5--5-5-5-5-5-5---7--7-7-7-7-7-7---5--5-5-5-5-5-5---7--7-7-7-7-7-7--------------------|
|------------------5--5-5-5-5-5-5--------------------5--5-5-5-5-5-5--------------------|


|-------------------------------------------------------------------|
|-------------------------------------------------------------------|
|-------------------------------------------------------------------|
|-7--7-7-7-7-7-7---8-8-8-8-8-8-8-8---9-9-9-9-9-9-9-9-9--------------|
|-5--5-5-5-5-5-5---6-6-6-6-6-6-6-6---7-7-7-7-7-7-7-7-7--------------|
|-------------------------------------------------------------------|

Chorus
|-----------------------------------------------------------------------------------|
|-----------------------------------------------------------------------------------|
|-----------------------------------------------------------------------------------|x4
|-------------------------------------7-7-7-7-7-7-7-7-7-7-7-7-7-7-7-7---------------|
|-7---7-7-7-7-7-7---9-9-9-9-9-9-9-9---5-5-5-5-5-5-5-5-5-5-5-5-5-5-5-5---------------|
|-5---5-5-5-5-5-5---7-7-7-7-7-7-7-7-------------------------------------------------|

The 1В° guitar play the solo and the 2В° guitar play the chorus.

Solo
|----------------------------------------------------------------------------------------|
|----------------------------------------------------------------------------------------|
|----------------------------------------------------------------------------------------|
|-7-7-7-7-7-7--7-7-7-7-7-7----10-10-10-10-10-10---12-12-10-12-13-12-10-------10----------|
|----------------------------------------------------------------------12-12-------------|
|----------------------------------------------------------------------------------------|


|----------------------------14-12-----12-------------------------|
|------------------------------------14---------------------------|
|-----14-16-18-16-14----------------------14--14-16-17-19---------|
|-16--------------------16----------------------------------------|
|-----------------------------------------------------------------|
|-----------------------------------------------------------------|

In this part there’re no guitar





Chorus
|-----------------------------------------------------------------------------------|
|-----------------------------------------------------------------------------------|
|-----------------------------------------------------------------------------------|x5
|-------------------------------------7-7-7-7-7-7-7-7-7-7-7-7-7-7-7-7---------------|
|-7---7-7-7-7-7-7---9-9-9-9-9-9-9-9---5-5-5-5-5-5-5-5-5-5-5-5-5-5-5-5---------------|
|-5---5-5-5-5-5-5---7-7-7-7-7-7-7-7-------------------------------------------------|

And then:
|-----------------|
|-----------------|
|-----------------|x1
|-----------------|
|-7--7-7-7--------|
|-5--5-5-5--------|


I’m not shure the solo is 100% correct.
Enjoy it!

In addition to Chords / Tabs Lenny Kravitz - Dig In (Second Version), we offer an excerpt from a random book.My address to our Washington Society spoke of health, bodily and spiritual.

LiveInternet