AllChordsTabs.com

Maroon 5 - Hands All Over (First Version) Chords and Tabs


Artists:
Chords and Tabs » M » Maroon 5 - Hands All Over (First Version)

Maroon 5 - Hands All Over (First Version)

Maroon 5 - Hands All Over (First Version) Chords / Tabs

Maroon 5 - Hands All Over First Version: chords and tabs for the song. Watch chords and tablatures for all songs of the singer (group) Maroon 5. Other chords and tabs for the "Hands All Over " can find at the bottom of the page.

Intro:      (When the guitar comes in on:"Put your hands all over me")
e|---------------------------------------------------------------------------|
B|---------------------------------------------------------------------------|
G|---------------------------------------------------------------------------|
D|-----5-5---4---3-3---------------------------------------------------------|
A|-----5-5---4---3-3---------------------------------------------------------|
E|-----3-3---2---1-1---------------------------------------------------------|

Verse:      ("I can't seem to find...")
e|---------------------------------------------------------------------------|
B|---------------------------------------------------------------------------|
G|----5-5-x-5--x-5--x-5--x-x-x----5-5-x-5--x-5--x-5--8-8-8-8-8-8-------------|
D|----5-5-x-5--x-5--x-5--x-x-x----5-5-x-5--x-5--x-5--8-8-8-8-8-8-------------|X times
A|----3-3-x-3--x-3--x-3--x-x-x----3-3-x-3--x-3--x-3--6-6-6-6-6-6-------------|
E|---------------------------------------------------------------------------|

Chorus:     ("Put your hands all over me please talk to me...")
e|---------------------------------------------------------------------------|
B|---------------------------------------------------------------------------|
G|----5-5-x-5--x-5--x-5--x-x-x----5-5-x-5--x-5--x-5--3-3---------------------|
D|----5-5-x-5--x-5--x-5--x-x-x----5-5-x-5--x-5--x-5--3-3---------------------| X3
A|----3-3-x-3--x-3--x-3--x-x-x----3-3-x-3--x-3--x-3--1-1---------------------|
E|---------------------------------------------------------------------------|
("Love is a game you say...")
e|---------------------------------------------------------------------------|
B|---------------------------------------------------------------------------|
G|---------------------------------------------------------------------------|
D|----5-5-x-5--x-5--x-5--x-x-x-----------------------------------------------| X2
A|----5-5-x-5--x-5--x-5--x-x-x-----------------------------------------------|
E|----3-3-x-3--x-3--x-3--x-x-x-----------------------------------------------|

Before the 2nd verse play this
e|---------------------------------------------------------------------------|
B|---------------------------------------------------------------------------|
G|----10b12--10--8--5--------------------------------------------------------|
D|---------------------7brb8brb8brb8brb8--5--7--5---------------------------|
A|---------------------------------------------------------------------------|
E|---------------------------------------------------------------------------|

2nd Verse the same as the first Verse

2nd Chorus
e|---------------------------------------------------------------------------|
B|---------------------------------------------------------------------------|
G|----5-5-x-5--x-5--x-5--x-x-x----5-5-x-5--x-5--x-5--3-3---------------------|
D|----5-5-x-5--x-5--x-5--x-x-x----5-5-x-5--x-5--x-5--3-3---------------------| X3
A|----3-3-x-3--x-3--x-3--x-x-x----3-3-x-3--x-3--x-3--1-1---------------------|
E|---------------------------------------------------------------------------|

e|---------------------------------------------------------------------------|
B|---------------------------------------------------------------------------|
G|---------------------------------------------------------------------------|
D|----5-5-x-5--x-5--x-5--x-x-x-----------------------------------------------| X4
A|----5-5-x-5--x-5--x-5--x-x-x-----------------------------------------------|
E|----3-3-x-3--x-3--x-3--x-x-x-----------------------------------------------|

e|---------------------------------------------------------------------------|
B|---------------------------------------------------------------------------|
G|---------------------------------------------------------------------------|
D|----4--4-4-x-3---7brb8brb8brb8brb8--5--7--5-------------------------------|
A|----4--4-4-x-3-------------------------------------------------------------|
E|----2--2-2-x-1-------------------------------------------------------------|


e|---------------------------------------------------------------------------|
B|---------------------------------------------------------------------------|
G|------------------------------------------8--5-----------------------------|
D|----4--4-4-x-3---7brb8brb8brb8brb8--5--7-----------------------------------|
A|----4--4-4-x-3-------------------------------------------------------------|
E|----2--2-2-x-1-------------------------------------------------------------|

e|---------------------------------------------------------------------------|
B|---------------------------------------------------------------------------|
G|-----------------------------------8-8-8-8---------------------------------|
D|----4--4-4-x-3-3-3-3-x---6-6-6-6---8-8-8-8---------------------------------|
A|----4--4-2-x-3-3-3-3-x---6-6-6-6---6-6-6-6---------------------------------|
E|----2--2-2-x-1-1-1-1-x---4-4-4-4-------------------------------------------|

3rd verse you play nothing

Final chorus:
e|---------------------------------------------------------------------------|
B|------------------------------10brb11brb11brb11-8---8--10--8---------------|
G|----5-5-x-5--x-5--x-5--x-x-x-----------------------------------------------|
D|----5-5-x-5--x-5--x-5--x-x-x-----------------------------------------------|
A|----3-3-x-5--x-5--x-5--x-x-x-----------------------------------------------|
E|---------------------------------------------------------------------------|

e|---------------------------------------------------------------------------|
B|------------------------------10brb11brb11brb11brb11brb11p8----------------|
G|----5-5-x-5--x-5--x-5--x-x-x-----------------------------------------------|
D|----5-5-x-5--x-5--x-5--x-x-x-----------------------------------------------|
A|----5-5-x-5--x-5--x-5--x-x-x-----------------------------------------------|
E|---------------------------------------------------------------------------|

e|---------------------------------------------------------------------------|
B|---------------------------------------------------------------------------|
G|----5-5-x-5--x-5--x-5--x-x-x----5-5-x-5--x-5--x-5--3-3---------------------|
D|----5-5-x-5--x-5--x-5--x-x-x----5-5-x-5--x-5--x-5--3-3---------------------| X2
A|----3-3-x-3--x-3--x-3--x-x-x----3-3-x-3--x-3--x-3--1-1---------------------|
E|---------------------------------------------------------------------------|

e|---------------------------------------------------------------------------|
B|---------------------------------------------------------------------------|
G|---------------------------------------------------------------------------|
D|----5-5-x-5--x-5--x-5--x-x-x-----------------------------------------------| X4
A|----5-5-x-5--x-5--x-5--x-x-x-----------------------------------------------|
E|----3-3-x-3--x-3--x-3--x-x-x-----------------------------------------------|

Finish:

e|---------------------------------------------------------------------------|
B|---------------------------------------------------------------------------|
G|-----5---------------------------------------------------------------------|
D|-----3---------------------------------------------------------------------|
A|-----3---------------------------------------------------------------------|
E|---------------------------------------------------------------------------|

In addition to Chords / Tabs Maroon 5 - Hands All Over (First Version), we offer an excerpt from a random book.- Even so? My casual interlocutor suddenly grinned and turned his whole body to me.

LiveInternet