AllChordsTabs.com

Linkin Park - 08 - Figure (Second Version) Chords and Tabs


Artists:
Chords and Tabs » L » Linkin Park - 08 - Figure (Second Version)

Linkin Park - 08 - Figure (Second Version)

Linkin Park - 08 - Figure (Second Version) Chords / Tabs

Linkin Park - 08 - Figure Second Version: chords and tabs for the song. Watch chords and tablatures for all songs of the singer (group) Linkin Park. Other chords and tabs for the "08 - Figure" can find at the bottom of the page.

Linkin Park
Figure.09
Meteora
Tuning: Drop D half step down

/ = Slide
t = Tap
p = pull off
h = Hammer On
* = Harmonic
x = Dead Note

Intro:
|---------------------------------------------|
|---------------------------------------------|
|---------------------------------------------|
|---------------------------------------------|
|--5----8---5----8--5------8---5/6-5/6-5/65--|
|----0---------0--------0---------------------|

Part.02:
|-----------------------------------------------|
|-----------------------------------------------|
|-----------------------------------------------|
|--------------------------------0-1-1-1-1-0/1--|
|--5----8---5----8--5--------8---0-1-1-1-1-0/1--|
|----0---------0--------0--------0-1-1-1-1-0/1--|

OR

The Tapping Part
|---------------------------------------------------|
|---------------------------------------------------|
|---------------------------------------------------|
|--t12p0h3-t12p0h3--t12p0h3--t12/1312/1312/1312--|  Follow above pattern
|---------------------------------------------------|
|---------------------------------------------------|
^Octave Petal

Verse
|----------------------------------------------|
|----------------------------------------------|
|----------------------------------------------|
|--------5---------5----------5--0-1-1-1-1-0/1-|  Repeat 2 times
|-0--5*--3--0--5*--3--0--5*---3--0-1-1-1-1-0/1-|
|-0--5*--3--0--5*--3--0--5*---3--0-1-1-1-1-0/1-|



Verse.02
|---------------------------------------|
|---------------------------------------|
|---------------------------------------|
|---------------------------------------|   Repeat 2 times
|----5*------5*------5*---0-1-1-1-1-0/1-|
|-0--5*--00--5*---00-5*---0-1-1-1-1-0/1-|



Verse.03
|----------------------------------------------|
|----------------------------------------------|
|----------------------------------------------|
|--------5---------5----------5--0-1-1-1-1-0/1-|  Repeat 2 times
|-0--5*--3--0--5*--3--0--5*---3--0-1-1-1-1-0/1-|
|-0--5*--3--0--5*--3--0--5*---3--0-1-1-1-1-0/1-|



Pre-Chorus
|------------------------|
|------------------------|
|------------------------|
|------------------------|
|-0-0-8--0-0-8--0-0-8--0-|
|-0-0-8--0-0-8--0-0-8--0-|



Chorus
|---------------------------------------|
|---------------------------------------|
|---------------------------------------|
|-0-0-0-0--88810--0--3-3-3-3--555--777--| X3
|-0-0-0-0--8888---0--3-3-3-3--555--777--|
|-0-0-0-0--8888---0--3-3-3-3--555--777--|


Chorus.02
|--------------------------------------|
|--------------------------------------|
|--------------------------------------|
|-0-0-0-0--88810--0--3-3-3-3--777-1-0--|
|-0-0-0-0--8888---0--3-3-3-3--777-1-0--|
|-0-0-0-0--8888---0--3-3-3-3--777-1-0--|




Verse
|----------------------------------------------|
|----------------------------------------------|
|----------------------------------------------|
|--------5---------5----------5--0-1-1-1-1-0/1-|  Repeat 2 times
|-0--5*--3--0--5*--3--0--5*---3--0-1-1-1-1-0/1-|
|-0--5*--3--0--5*--3--0--5*---3--0-1-1-1-1-0/1-|



Verse.02
|---------------------------------------|
|---------------------------------------|
|---------------------------------------|
|---------------------------------------|   Repeat 2 times
|----5*------5*------5*---0-1-1-1-1-0/1-|
|-0--5*--00--5*--00--5*---0-1-1-1-1-0/1-|




Verse.03
|----------------------------------------------|
|----------------------------------------------|
|----------------------------------------------|
|--------5---------5----------5--0-1-1-1-1-0/1-|  Repeat 2 times
|-0--5*--3--0--5*--3--0--5*---3--0-1-1-1-1-0/1-|
|-0--5*--3--0--5*--3--0--5*---3--0-1-1-1-1-0/1-|


Pre-Chorus
|------------------------|
|------------------------|
|------------------------|
|------------------------|
|-0-0-8--0-0-8--0-0-8--0-|
|-0-0-8--0-0-8--0-0-8--0-|


Chorus
|---------------------------------------|
|---------------------------------------|
|---------------------------------------|
|-0-0-0-0--88810--0--3-3-3-3--555--777--| X3
|-0-0-0-0--8888---0--3-3-3-3--555--777--|
|-0-0-0-0--8888---0--3-3-3-3--555--777--|


Chorus.02
|-------------------------------------------|
|-------------------------------------------|
|-------------------------------------------|
|-0-0-0-0--88810--0--3-3-3-3--777-1-1-1-1---|
|-0-0-0-0--8888---0--3-3-3-3--777-1-1-1-1---|
|-0-0-0-0--8888---0--3-3-3-3--777-1-1-1-1---|


Breakdown intro:
|---------------------------------------------|
|---------------------------------------------|
|---------------------------------------------|
|---------------------------------------------|
|--5----8---5----8--5------8---5/6-5/6-5/65--|
|----0---------0--------0---------------------|

Part.02:
|-----------------------------------------------|
|-----------------------------------------------|
|-----------------------------------------------|
|--------------------------------0-1-1-1-1-0/1--|
|--5----8---5----8--5--------8---0-1-1-1-1-0/1--|
|----0---------0--------0--------0-1-1-1-1-0/1--|

OR

|---------------------------------------------------|
|---------------------------------------------------|
|---------------------------------------------------| Follow Above Patern
|--t12p0h3-t12p0h3--t12p0h3--t12/1312/1312/1312--|
|---------------------------------------------------|
|---------------------------------------------------|
Ovtave Petal ^


Breakdown:
|---------------------------------------------|
|---------------------------------------------|
|---------------------------------------------|
|-1-0-x-x-x--0-1-3-------1-0-x-x-x--0-1-3-----|
|-1-0-x-x-x--0-1-3-------1-0-x-x-x--0-1-3-----|
|-1-0-x-x-x--0-1-3--4*---1-0-x-x-x--0-1-3--5*-|

Breakdown.02
|---------------------------------------------|
|---------------------------------------------|
|---------------------------------------------|
|-1-0-x-x-x--0-1-3-------1-0-x-x-x--0-1-3-----|
|-1-0-x-x-x--0-1-3-------1-0-x-x-x--0-1-3-----|
|-1-0-x-x-x--0-1-3--4*---1-0-x-x-x--0-1-3-----|

Breakdown.03
|---------------------------------------------|
|---------------------------------------------|
|---------------------------------------------|
|-1-0-x-x-x--0-1-3-------1-0-x-x-x--0-1-3-----|
|-1-0-x-x-x--0-1-3-------1-0-x-x-x--0-1-3-----|
|-1-0-x-x-x--0-1-3--4*---1-0-x-x-x--0-1-3--5*-|

Breakdown.04
|------------------------------------------|
|------------------------------------------|
|------------------------------------------|
|-1-0-x-x-x--0-1-3-------1-0-x-x-x---------|
|-1-0-x-x-x--0-1-3-------1-0-x-x-x--0-1-3--|
|-1-0-x-x-x--0-1-3--4*---1-0-x-x-x--0-1-3--|



Chorus
|---------------------------------------|
|---------------------------------------|
|---------------------------------------|
|-0-0-0-0--88810--0--3-3-3-3--555--777--| X3
|-0-0-0-0--8888---0--3-3-3-3--555--777--|
|-0-0-0-0--8888---0--3-3-3-3--555--777--|

Chorus.02
|-----------------------------------|
|-----------------------------------|
|-----------------------------------|
|-0-0-0-0--88810--0--3-3-3-3--777---|
|-0-0-0-0--8888---0--3-3-3-3--777---|
|-0-0-0-0--8888---0--3-3-3-3--777---|

Chorus.03
|---------------------------------------|
|---------------------------------------|
|---------------------------------------|
|-0-0-0-0--88810--0--3-3-3-3--555--777--| X3
|-0-0-0-0--8888---0--3-3-3-3--555--777--|
|-0-0-0-0--8888---0--3-3-3-3--555--777--|

Chorus.04
|----------------------------------------------|
|----------------------------------------------|
|----------------------------------------------|
|-0-0-0-0--88810--0--3-3-3-3--77-1-1-1-1-1111--| 1111 are ones not 11s
|-0-0-0-0--8888---0--3-3-3-3--77-1-1-1-1-1111--|
|-0-0-0-0--8888---0--3-3-3-3--77-1-1-1-1-1111--|

In addition to Chords / Tabs Linkin Park - 08 - Figure (Second Version), we offer an excerpt from a random book.* * * Terrible Great Dane of my childhood - Mouse! You are alone, you have no churches, you are not served together.

LiveInternet